Guitaretab - guitar tabs
Song name
# A B C D E F G H I J K L M N O P Q R S T U V W X Y Z

Underoath - Some Will Seek Forgiveness Others Escape tab

I don't have the timings, but the chords and their order are correct.

Guitar 1
e---0---0---0---|
B---0---7---7---|
G---6---7---7---|  (2x)
D---7---0---5---|
A---4---0---5---|
D---x---x---5---|

Guitar 2
e-------------|
B-------7-----|
G---------9---|  (16x)
D---9p7-------|
A-------------|
D-------------|

("I swear I'll hear your voice in the crowd")
Guitar 1
e--------------------------------------------|
B------12---12--12--12-----12---12--12--12---|
G-----9----9---9---9------9----9---9---9-----|  (3x)
D---12---11---9---7---7/12---11---9---7------|
A--------------------------------------------|
D--------------------------------------------|

("Hey Unfaithful")
Guitar 1
e---0---0---0---|
B---0---0---0---|
G---7---6---7---|
D---7---7---0---|  (2x)
A---5---7---9---|
D---5---7---9---|

[ Tab from: http://www.guitaretab.com/u/underoath/52935.html ]
Guitar 2
e----------------------------|
B---10--10--10--9--9--9|11---|
G-----12--12--12-12-12----12-|  (4x)
D----------------------------|
A----------------------------|
D----------------------------|


Guitar 1
e---------------------------------------------------|
B---------------------------------------------------|
G---14--14--14--14--14--14--9---9---9---11--11--11--|
D---0---0---0---0---0---0---0---0---0---0---0---0---|  (2x)
A---------------------------------------------------|
D---------------------------------------------------|

Guitar 2
e---0---7---9---10--12--14---|
B---7---0---0---0---0---0----|
G---7---4---6---7---9---11---|
D---0------------------------|
A---5------------------------|
D----------------------------|


Guitar 1
e---x---0---x---x---|
B---x---0---0---x---|
G---7---7---7---6---|
D---4---7---0---0---|
A---5---5---9---7---|
D---4---5---9---7---|

Guitar 2
e----------------|
B----------------|
G---14---9---11--|
D---x----x---x---|
A---12---7---9---|
D----------------|
Related for Some Will Seek Forgiveness Others Escape tab
×
Best way to learn
"Some Will Seek Forgiveness Others Escape"