Song name
# A B C D E F G H I J K L M N O P Q R S T U V W X Y Z

Unearth - So It Goes tab

So It Goes solo
Unearth
Tabbed by; Nate Pritchett

These are the solo parts from So It Goes…they should be fairly accurate  =]  enjoi



2:59 – 3:35   this is all I got right now, more hopefully by tomorrow or a lil later today
e|---------------------------------------------------------------------------------------|
B|-12b------------10h12p10---------------10h12p10----------------------10-8h10p8---------|
G|-12b--9----9-12----------12-9-12-11--9---------12-9-12-9--9----9-12-----------11---9b--|
D|--------12-------------------------12-------------------12---12-----------------12-----|
A|---------------------------------------------------------------------------------------|
E|---------------------------------------------------------------------------------------|

e|-12121212-12-14-15-14-12h14p12s17-15—19h15------15-19h15------15-191715--------------|
B|------------------------------------------17--17--------17--17---------191715-17b----|
G|--------------------------------------------16------------16-------------------------|
D|-------------------------------------------------------------------------------------|
A|-------------------------------------------------------------------------------------|
E|-------------------------------------------------------------------------------------|

e|---------7s12h7---7-10h7---7-12h7---7-10h7---7------------------------------------------|
B|--------8------8-8------8-8------8-8------8-8-------------------------------------------|
G|-------9--------9--------9--------9--------9--------------------------------------------|
D|------9---------------------------------------------------8-9-8--8----------------------|
A|--7h10-------------------------------------------(7)-7-10------10-10-9-10-9-7-9-10-9-5s7|
E|----------------------------------------------------------------------------------------|

(Not sure about this part)
e|-------------------------------------------------|
B|----------------------------------------15-17b---|
G|---------------------------141617141617----------|
D|--------------141517141517-----------------------|
A|--141517141517-----------------------------------|
E|-------------------------------------------------|

e|--t1912h15p12-t1912h15p12-t1912h15p12----t1912h15p12-t1912h15p12-t1912-12b—12b--12----|
B|--------------------------------------15----------------------------------15--15------|
G|--------------------------------------------------------------------------------------|
D|--------------------------------------------------------------------------------------|
A|--------------------------------------------------------------------------------------|
E|--------------------------------------------------------------------------------------|

e|----------------------------------------------------------------------------|
B|----------------------------------------------------------------------------|
G|----------------------------------------------------------------------------|
D|-14-12----------------------------------------------------------------------|
A|-------14-17-14-----------------------14-12-10--12-9-10--15-14-12-14-12-10--|
E|----------------17-15-14-12-14-12-10----------------------------------------|

e|------------------------------------------------|
B|------------------------------------------------|
G|------------------------------------------------|
D|------14------17----19---17--14--17-14-12-14b---|
A|--1212---1212----12----12--12-------------------|
E|------------------------------------------------|

e|-000-7-000-5-000-7-000-3-000-5------------------------|
B|-------------------------------8p5---8p5--------------|
G|-----------------------------------7-----7------------|
D|--------------------------------------------7-9-5-----|
A|--------------------------------------------------7*--|
E|------------------------------------------------------|

e|-------------------------------------------------------------|
B|-------------------------------------------------------------|
G|--999--111111--999--121212--111111--141414---1212--1111------|
D|-------------------------------------------------------------|
A|--777--9-9-9---777--101010--9-9-9---121212---1010--9-9-------|
E|-------------------------------------------------------------|

e|-----------------------------------------------|
B|-----------------------------------------------|
G|-----------------------------------------------|
D|-12h14p12----12--------------------------------|
A|----------15----15-14-12-14--------------------|
E|-----------------------------------------------|
Tap to rate this tab
 
# A B C D E F G H I J K L M N O P Q R S T U V W X Y Z