Song name
# A B C D E F G H I J K L M N O P Q R S T U V W X Y Z

Unknown Mortal Orchestra - From The Sun tab

e|----10-----|--------10/12|---7p5---|-----------|----8-|-------8/10|---6---6-|
B|------8--12|---10p9------|--------5|---5p3--5/8|6-----|---6p5-----|----4-4--|
G|---9---9---|--9----9-----|--5----8-|--4--------|----7-|--5---5----|--5--5-5-|
D|-10--------|-9-----------|-7-------|-5----5----|---8--|-5---------|-6-------|
A|-----------|-------------|---------|-----------|------|-----------|---------|
E|8----------|9------------|5--------|3-------5/8|6-----|5----------|4--------|


e|----10----|--------10/12|---7p5---|-----------|----8|-------8/10|---11---11-|
B|------8-12|---10p9------|--------5|---5p3--5/8|6----|---6p5-----|-----9-9---|
G|---9---9--|--9----9-----|--5----8-|--4--------|----7|--5---5----|--10--10---|
D|-10-------|-9-----------|-7-------|-5----5----|---8-|-5---------|-11--------|
A|----------|-------------|---------|-----------|-----|-----------|-----------|
E|8---------|9------------|5--------|3-------5/8|6----|5----------|9----------|

| /   slide up
| \   slide down
| h   hammer-on
| p   pull-off
| ~   vibrato
| +   harmonic
| x   Mute note
| b   Bend
| pb  Pre-bend
| br  Bend release
| pbr Pre-bend release
| brb Bend release bend
Tap to rate this tab
 
# A B C D E F G H I J K L M N O P Q R S T U V W X Y Z