Guitaretab - guitar tabs
Song name
# A B C D E F G H I J K L M N O P Q R S T U V W X Y Z

Urban Dub - Run Away tab

Highlighted       Show chord diagrams
   Urbandub - Runaway
   from the album "Influence"
   Jeff, Baguio City

   Below are the lyrics and chords of "Runaway". Comments and suggestions  
   are welcome. Pasensya na sa mga maling parte bago lang kasi ako sa pag- 
   kapa ng mga chords eh. Enjoy!
   
   E7

   --7--
   --9--
   --8--
   --9--
   --7--
   -----

   C#m
 
   --4--
   --5--
   --6--
   --6--
   --4--
   -----

   A

   --5--
   --5--
   --6--
   --7--
   --7--
   --5--

   s - slide
   p - pull

   Intro:   

   E7

   00:00

      E--11------- --11-------
      B--12-12---- -----12----
      G--9-----9-- --------9--
      D----------- -----------
      A----------- -----------
      e----------- -----------

   00:07

      E-------- ------------
      B-------- ------------
      G--4s11-- --13-8s9p8--
      D--x-x--- --x--x-x-x--
      A--2s9--- --11-6s7p6--
      e-------- ------------

   00:34
[ Tab from: http://www.guitaretab.com/u/urban-dub/131271.html ]
   E7
   Fear I
   C#m             
   drive away from 
   E7
   all I've
   C#m                      
   fallen too deep from the 
   E7
   world I
   C#m             
   know not what I 
   E7
   do I think
   C#m
   twice so I go
  A
   How do I, how do I mend the wounds
  E7        
   I need you, 
  C#m
   I want you 
   A
   here Cause I'm afraid

   E7

   E----------------- --------------- --------------- ---------------
   B----4-----4-----4 --4-----4-----4 --4-----4-----4 --4-----4-----4  
   G------4-----4---- ----4-----4---- ----4-----4---- ----4-----4----
   D--2-----2-----2-- ------2-----2-- ------2-----2-- ------2-----2--
   A----------------- --------------- --------------- ---------------
   e----------------- --------------- --------------- ---------------

   Fool
   To think I could break all the rules
   Damage inside still are yet cool
   I'm dying over here
   I slowly break still I go
   How do I, how do I mend the wounds
   I need you, I want you here
   Cause I'm afraid
   I'm sorry
   I didn't mean to run, run



   
Related for Run Away tab
Advertisement will be closed in 10 seconds