Usher - Love In This Club tab

-------------------------------------------------------------------------------
			     Love in this Club - Usher
-------------------------------------------------------------------------------
Tabbed by: Iain Corrigan (Corrdawg)

Email: corrdawg@hotmail.com

Tuning: EADGBe

This is very similar to the other version out there but much easier to play with 
only open chords. This is my first tab.




Intro:
   C                        Em                     Am

e|-----------------------|-----------------------|-----------------------------|
B|-----------------------|-----------------------|-----------------------------|
G|-----------------------|--------------------0--|2----2----2----2--0----------|
D|--------------------0--|--2----2----2----2-----|-----------------------------|
A|--3----3----3----3-----|-----------------------|-----------------------------|
E|-----------------------|-----------------------|-----------------------------|


   F                              C

e|-----------------------------|------------------------------------------------|
B|-----------------------------|------------------------------------------------|
G|--------------------------0--|------------------------------------------------|
D|--3----3----3----2----0------|------------------------------------------------|
A|-----------------------------|--3---------------------------------------------|
E|-----------------------------|------------------------------------------------|


Chorus:

Stick with all down down down strokes. Feel free to hammer on the bass notes. 

	C				Em				Am			F

e|--0--0--0---------|--0--0--0--------|--0--0--0--------|--X--X--------------|
B|--1--1--1---------|--0--0--0--------|--1--1--1--------|--1--1--------------|
G|--0--0--0---------|--0--0--0-----0--|--2--2--2--2--0--|--2--2-----------0--|
D|--2--2--2-----0---|--2--2--2--2-----|--2--2--2--------|--3--3--3--2--0-----|
A|--3--3--3--3------|--2--2--2--------|--0--0--0--------|--3--3--------------|
E|------------------|--0--0--0--------|--X--X--X--------|--X--X--------------|

Verse: 

Just play C, Em, Am, F once per measure or down stroke in 4/4 time.

Tap to rate this tab
 
# A B C D E F G H I J K L M N O P Q R S T U V W X Y Z