Song name
# A B C D E F G H I J K L M N O P Q R S T U V W X Y Z

Utro - Sad tab

Utro - Sad
From the album "Utro" (self-released 2010).

https://www.facebook.com/ytrorty

Tabbed by Isaac Murguia, March 2014.
Originally uploaded to Ultimate-Guitar.com
Contact: www.youtube.com/user/Goadiroth

INTRO:
  RIFF A:
e|-----------------------|
B|---3---5---3---5---3---|
G|-4---4---4---4---4---4-|
D|-----------------------|
A|-----------------------|
E|-----------------------| [x8]
  SYNTH A: (comes in on 5th repetition of RIFF A)
e|----------------|
B|-------8--------|
G|-7---------9----|
D|----------------|
A|----------------|
E|----------------| [x2]

VERSE:
Repeat SYNTH A [x4]
Repeat RIFF A [x4] comes in on 3rd repetition of SYNTH

POST-VERSE:
  RIFF B:
e|---2---3---2---3---2---|
B|-3---3---3---3---3---3-|
G|-----------------------|
D|-----------------------|
A|-----------------------|
E|-----------------------| [x4]
  SYNTH B:
e|--------3--0----|
B|-3--------------|
G|----------------|
D|----------------|
A|----------------|
E|----------------| [x2]

Repeat VERSE

Bass only...

Play 'SYNTH A' until the end, about 12 times.

Repeat RIFF A [x4]
Repeat RIFF B [x4]
Repeat RIFF A [x12]
Repeat RIFF B [x4]

End. Please rate!
Tap to rate this tab
# A B C D E F G H I J K L M N O P Q R S T U V W X Y Z