Song name
# A B C D E F G H I J K L M N O P Q R S T U V W X Y Z

Utro - Reka tab

Utro - Reka
From the album "Utro" (self-released 2010).

https://www.facebook.com/ytrorty

Tabbed by Isaac Murguia, March 2014.
Originally uploaded to Ultimate-Guitar.com
Contact: www.youtube.com/user/Goadiroth

INTRO:
e|--------------------------|
B|--------------------------|
G|--------------------------|
D|--------------------------|
A|-77-666666-77-66666666-7--|
E|--------------------------| [x4]

VERSE:
e|--------------------------------------|----------------------------------------|
B|--------------------9-888888-9-888888-|--------------------9-8888-8888-8888-88-|
G|-9-888888-9-888888-8------------------|-9-888888-9-888888-8--------------------|
D|--------------------------------------|----------------------------------------|
A|--------------------------------------|----------------------------------------|
E|--------------------------------------|----------------------------------------| [x2]

e|-----|
B|-8---|
G|-----|
D|-----|
A|-----|
E|-----|

Repeat INTRO

FILL:
e|----------|
B|----------|
G|-999-9999-|
D|----------|
A|----------|
E|----------|

Repeat VERSE

OUTRO:
e|----------------------------------------|----------------------------------------|
B|----------------------------------------|------------------99-888888-99-88888888-|
G|-6-6666-6666-6666-99-888888-99-88888888-|-6-6666-6666-6666-----------------------|
D|----------------------------------------|----------------------------------------|
A|----------------------------------------|----------------------------------------|
E|----------------------------------------|----------------------------------------|

e|----------------------------------------|----------------------------------------|
B|----------------------------------------|------------------99-888888-88-888888-8-|
G|-666666-66-666666-99-888888-99-88888888-|-666666-66-666666-----------------------|
D|----------------------------------------|----------------------------------------|
A|----------------------------------------|----------------------------------------|
E|----------------------------------------|----------------------------------------|

End. Please rate!
Tap to rate this tab
 
# A B C D E F G H I J K L M N O P Q R S T U V W X Y Z