Song name
# A B C D E F G H I J K L M N O P Q R S T U V W X Y Z

Vagrant - Intro tab

Intro
|----------------------------------------------------------------------------|
|----------------------------------------------------------------------------|
|----------------------------------------------------------------------------|
|----------------------------------------------------------------------------|
|3-2-x4--3-2-2-2-2-2222-3-2--------------------------------------------------|
|1-0-----1-0-0-0-0-0000-1-0--------------------------------------------------|
             * * * ****

Bridge
|----------------------------------------------------------------------------|
|----------------------------------------------------------------------------|
|----------------------------------------------------------------------------|
|----------------------------------------------------------------------------|
|-7-6-3-6-3-2-3-2-x4---------------------------------------------------------|
|-5-4-1-4-1-0-1-0------------------------------------------------------------|

Breakdown
|----------------------------------------------------------------------------|
|----------------------------------------------------------------------------|
|----------------------------------------------------------------------------|
|----------------------------------------------------------------------------|
|2-2-2-2222-3-2-7-6-3-6-3-2-3-2-x4-------------------------------------------|
|0-0-0-0000-1-0-5-4-1-4-1-0-1-0----------------------------------------------|
 * * * ****

* = palm mute
Tap to rate this tab
 
# A B C D E F G H I J K L M N O P Q R S T U V W X Y Z