Song name
# A B C D E F G H I J K L M N O P Q R S T U V W X Y Z

Valient Thorr - Heatseeker tab

Help us improve GuitareTab! Take a short survey!
Valient Thorr - Heatseeker

This was tabbed by Eidan Thorr. I got permission from him to "spread the word however
see fit"  when he posted it on the Thorriors.com forum. Have fun. Thanks Eidan!

Eidan Thorr - "I've seen a few different posts on how to play the intro to heatseeker.
fact  that you guys are playing our songs is an unbelievable compliment. but as
they are your songs as well. So,..i've never typed tab before so, this is how to play 
intro to heatseeker.

1. 1st three notes are single notes played as a triplet only you don't have to pick 3
you can just hammer onto the 3rd fret.
2. the ) mark means bend but you can hear all that stuff on the record and apply to this 
way.
3. these positions make up a lot of the songs variations. listen closely to the
of the chords. a lot of times they are single notes and variations on root chords.  
chords
actually used in this song at all.
4. I'm not sure if I should be doing this because figuring it out half the fun but whatever....."

E------------------------------------------|
B-------------3----------------------------|
G------------2-----------------------------|
D------2-----------2-----------------------|
A-------------------0----------------------|
E-0-3----------3)--------------------------|

E------------------------------------------|
B-----------3------------------------------|
G-----------2------------------------------|
D------2----------2------2-----------------|
A------------------0------0-------2--------|
E-0-3---------3)----2-3---------0----------|
Related for Heatseeker tab