Song name
# A B C D E F G H I J K L M N O P Q R S T U V W X Y Z

Vangelis - Conquest Of Paradise tab

E|----------------------------------------------------0--------------------|
B|------1-0---------0------------1-0----------0------------3--1-0-1-3--0---|
G|-----------2-1-2----1--------------2-1-2---------------------------------|
D|---2-------------------2---2-------------------0-------------------------|
A|-------------------------------------------------------------------------|
E|-------------------------------------------------------------------------|

E|---------------------------|
B|---------------------------|
G|-0--0-----0--2--0----------|      x2
D|-------3-----------3--2----|
A|---------------------------|
E|---------------------------|
                                            much succes   and enjoy
Tap to rate this tab
 
# A B C D E F G H I J K L M N O P Q R S T U V W X Y Z