Song name
# A B C D E F G H I J K L M N O P Q R S T U V W X Y Z

Veil Of Maya - Pillars tab

Sick song.
Pillars by Veil Of Maya
Drop B

|---------------------------------------------------------------------|
|------------------------------------------------------1~-------------|
|------------------------------------------------------4~-------------|
|--0-0~-0-0~-0-0-0-0~-0-0~-0-0-0~-0-0~-0-0-434--0~-434----4343--0~----|x1
|--0-2~-0-2~-0-0-0-2~-0-2~-0-0-2~-0-2~-0-0-434--4~-434----4343--4~----|
|--0----0----0-0-0----0----0-0----0----0-0-434-----434----4343--------|
   .    .    . . .    .    . .    .    . . ...     ...    ....

|-------------------------------------------------------------------------|
|-----1~-------------1~--------------1~--------------1~-------------1~----|
|-----4~-------------4~--------------4~--------------4~-------------4~----|
|-434----434--0~-434----4343--0~-434----43434--0~-434---4343--0~-434------|x1
|-434----434--4~-434----4343--4~-434----43434--4~-434---4343--4~-434------|
|-434----434-----434----4343-----434----43434-----434---4343-----434------|
  ...    ...     ...    ....     ...    .....     ...   ....     ...

You can figure out the rhythm for the 0's
|-------------------------------------------------------------------------|
|-------------1~--------------1~------------------------------------------|
|-------------4~--------------4~------------------------------------------|
|-434--0~-434----4343--0~-434----430-0-0-0-0-0-0-0-0-0-0-0-0-0-0-0-0-0-0--|x1
|-434--4~-434----4343--4~-434----430-0-0-0-0-0-0-0-0-0-0-0-0-0-0-0-0-0-0--|
|-434-----434----4343-----434----430-0-0-0-0-0-0-0-0-0-0-0-0-0-0-0-0-0-0--|
  ...     ...    ....     ...    ... . . . . . . . . . . . . . . . . . .


|-------------------------------------------|
|-------------------------------------------|
|--2----------2-----------------------------|
|----00-00------00-00----0-0-0-0-0-0-0-0----|x1
|----00-00------00-00----0-0-0-0-0-0-0-0----|
|----00-00-1~---00-00-1~-0-0-0-0-0-0-0-0----|
     .. ..      .. ..    . . . . . . . .


any questions -> www.myspace.com/codsterrrrr
Tap to rate this tab
 
# A B C D E F G H I J K L M N O P Q R S T U V W X Y Z