Song name
# A B C D E F G H I J K L M N O P Q R S T U V W X Y Z

Velvet Revolver - Gravedancer tab

Help us improve GuitareTab! Take a short survey!
Song:Gravedancer
Artist:Velvet Revolver
Album:Libertad
Guitar:Slash
Tabber:Sergio
Tuning:Standard (EADGBe)
Difficulty:Novice

Riff A
|-----------------|-----------------|-----------------|-----------------|
|--1p0------------|-----------------|--1p0------------|-----------------|
|------0----------|-----------------|------0----------|-----------------|
|--------0-4/5-0--|-----------------|--------0-4/5-0--|-----------------|
|-----------------|---3----2--------|-----------------|-----------------|
|-----------------|-------------3---|-----------------|--1----1/3-------|

Verse - (Use Wah-wah effect)
|-----------------|
|-1p0-----0~------|
|------0--0~------|
|-----------------|
|-----------------|
|-----------------|

Chorus - (Use Chorus effect)
|-----------------|-----------------|-----------------|-----------------|
|---------1-------|-----3---3-------|---------1-------|-1-------1-------|
|-------2---2---2-|---2---2---2---2-|-------0---0---0-|---0---0---0-----|
|-----2-------2---|-0-----------0---|-----2-------2---|-----2-------2---|
|-0---------------|-----------------|-3---------------|---------------3-|
|-----------------|-----------------|-----------------|-----------------|

Bridge
|-3-----3-3-3-3-3-|-----------------|-----------------|-1-----1-1-1-1-1-|
|-0-----0-0-0-0-0-|-3-----3-3-3-3-3-|-1-----1-1-1-1-1-|-1-----1-1-1-1-1-|
|-0-----0-0-0-0-0-|-3-----3-3-3-3-3-|-0-----0-0-0-0-0-|-2-----2-2-2-2-2-|
|-0-----0-0-0-0-0-|-3-----3-3-3-3-3-|-2-----2-2-2-2-2-|-3-----3-3-3-3-3-|
|-2-----2-2-2-2-2-|-1-----1-1-1-1-1-|-3-----3-3-3-3-3-|-3-----3-3-3-3-3-|
|-3-----3-3-3-3-3-|-----------------|-----------------|-1-----1-1-1-1-1-|

Riff B
|-----------------|-----------------|-----------------|-----------------|
|-13p12-----------|-----------------|-13p12-----------|-----------------|
|------12---------|-----------------|------12---------|-----------------|
|--------12-16/17-|-12--------------|--------12-16/17-|-12--------------|
|-----------------|-----15---14-----|-----------------|-----15---14-----|
|-----------------|--------------15-|-----------------|-----------------|

|-----------------|-----------------|-----------------|-----------------|
|-13p12-----------|-----------------|-13p12-----15~---|-15-17-18~-------|
|------12---------|-----------------|------12---------|-----------------|
|--------12-16/17-|-12--------------|--------12-------|-----------------|
|-----------------|-----15---14-----|-----------------|-----------------|
|-----------------|--------------15-|-----------------|-----------------|

|-----------------|-----------------|-----------------|-----------------|
|-17b-17br17-15-17|-13-15-16~-------|-18~-------------|-20~-------------|
|-----------------|-----------------|-----------------|-----------------|
|-----------------|-----------------|-----------------|-----------------|
|-----------------|-----------------|-----------------|-----------------|
|-----------------|-----------------|-----------------|-----------------|
_________________________________________________________________________
_________________________________________________________________________
_________________________________________________________________________

Song:

Riff A..x2
Verse...x8
Chorus..x4
Riff A..x1
Verse...x8
Chorus..x4
Bridge..x4
Riff B..x1
Chorus..x4
Outro

*On Riff A & B i like to put the thing (next to the tone and volume)
all the way up and put both TONE on 10 in my Starcaster, it sounds cool
for me.
_________________________________________________________________________


p - Pull-Off
/ - Slide
~ - Let Ring
Related for Gravedancer tab