Song name
# A B C D E F G H I J K L M N O P Q R S T U V W X Y Z

Ventures - Ghost Riders In The Sky tab

Help us improve GuitareTab! Take a short survey!
-------------------------------------------------------------------------------
			     Ghost riders in the sky - The Ventures
-------------------------------------------------------------------------------

This is my first tab, so forgive mistakes.

Tuning: standart

e|-----------------------------|
B|-----------------------------|
G|-----------------------------|
D|---2-2-2-4-5-5-5-2-----------|
A|-2-----------------5-55-1-5--|
E|-----------------------------|

e|------------------------------|
B|------------------------------|
G|-----------------2-4-4-4---4--|
D|---2-2-2-4-5-5-5---------5----|
A|-2----------------------------|
E|------------------------------|

e|------------------------------|
B|---5-5-5-5-5------------------|
G|-4-----------4-4-4-4-4-2------|
D|-------------------------4-2--|
A|------------------------------|
E|------------------------------|


e|------------------------------|
B|------------------------------|
G|------------------------------|
D|---------5-5-5-5-2-2-2-2---2--|
A|-3-3-3-3-----------------2----|
E|------------------------------|
Related for Ghost Riders In The Sky tab