Song name
# A B C D E F G H I J K L M N O P Q R S T U V W X Y Z

Ventures - Green Leaves Of Summer tab

        -----------------------------------------------------------

                   THE VENTURES - GREEN LEAVES OF SUMMER
               From THE COLORFUL VENTURES album. Released on
                              October, 1961

        -----------------------------------------------------------









   e|--------------------------0----|-------------------------------|
   B|---------------------0---------|-------------------------------|
   G|----------------0--------------|-------------------------------|
   D|-----------2-------------------|-------------------------------|
   A|------2------------------------|---------------------2---------|
   E|-0-----------------------------|-------------------------------|





      VERSE

      Em                              B
   e|-------------------------------|-------------------------------|
   B|-------------------------------|-------------------------------|
   G|-------------------------------|-------------------------------|
   D|-2-------------------4----2----|-1-----------------------------|
   A|-------------------------------|-----------2---------2---------|
   E|-------------------------------|-------------------------------|




      Em                              D
   e|-------------------------------|-------------------------------|
   B|-------------------------------|-------------------------------|
   G|-------------------------------|-------------------------------|
   D|-2---------4---------5---------|-4-----------------------------|
   A|-------------------------------|-----------5---------5----5----|
   E|-------------------------------|-------------------------------|




      G                               C
   e|-------------------------------|-------------------------------|
   B|-------------------------------|-------------------------------|
   G|-------------------------------|-------------------------------|
   D|-5-------------------4----5----|-7-------------------7---------|
   A|-------------------------------|-----------7-------------------|
   E|-------------------------------|-------------------------------|




      F#                              B
   e|-------------------------------|-------------------------------|
   B|-------------------------------|-------------------------------|
   G|-------------------------------|-------------------------------|
   D|-8-------------------8---------|-9-------------------8----10---|
   A|-----------9-------------------|-------------------------------|
   E|-------------------------------|-------------------------------|




      Em                              Am
   e|-------------------------------|-------------------------------|
   B|-------------------------------|-------------------------------|
   G|-7-------------------5----4----|-------------------------------|
   D|-------------------------------|-7-------------------7----9----|
   A|-------------------------------|-----------7-------------------|
   E|-------------------------------|-------------------------------|




      D                               G
   e|-------------------------------|-------------------------------|
   B|-------------------------------|-------------------------------|
   G|-5-----------------------------|-------------------------------|
   D|---------------------9----7----|-5-------------------5----7----|
   A|-------------------------------|-------------------------------|
   E|-------------------------------|-------------------------------|




 
   e|-------------------------------|-------------------------------|
   B|-------------------------------|-------------------------------|
   G|-------------------------------|-------------------------------|
   D|-9---------7---------5---------|-4---------2---------1---------|
   A|-------------------------------|-------------------------------|
   E|-------------------------------|-------------------------------|




      Em
   e|------0------------------------|-8----7----5-------------------|
   B|-----0-------------------------|----------------8----7----5----|
   G|----0--------------------------|-------------------------------|
   D|---2---------------------------|-------------------------------|
   A|--2----------------------------|-------------------------------|
   E|-0-----------------------------|-------------------------------|





     VERSE


   e|-------------------------------|-------------------------------|
   B|----------------5----7----5----|-4-----------------------------|
   G|-------------------------------|-----------4---------4---------|
   D|-----------2-------------------|-------------------------------|
   A|------2------------------------|-------------------------------|
   E|-0-----------------------------|-------------------------------|





   e|-------------------------------|-------------------------------|
   B|-5---------7---------8---------|-7-----------------------------|
   G|-------------------------------|-----------7---------7---------|
   D|-------------------------------|-------------------------------|
   A|-------------------------------|-------------------------------|
   E|-------------------------------|-------------------------------|





   e|-------------------------------|-5-------------------5---------|
   B|-8-------------------7----8----|-----------5-------------------|
   G|-------------------------------|-------------------------------|
   D|-------------------------------|-------------------------------|
   A|-------------------------------|-------------------------------|
   E|-------------------------------|-------------------------------|





   e|-6-------------------6---------|-7-------------------7----8----|
   B|-----------7-------------------|-------------------------------|
   G|-------------------------------|-------------------------------|
   D|-------------------------------|-------------------------------|
   A|-------------------------------|-------------------------------|
   E|-------------------------------|-------------------------------|





      BRIDGE


   e|-----------10--------10---8----|-----------8---------8---------|
   B|-------------------------------|-------------------------------|
   G|-------------------------------|-------------------------------|
   D|-------------------------------|-------------------------------|
   A|-------------------------------|-------------------------------|
   E|-------------------------------|-------------------------------|





   e|-----------8---------8---------|---7-----------------3----5----|
   B|-------------------------------|--8-------------3--------------|
   G|-------------------------------|-7-----------------------------|
   D|-------------------------------|-------------------------------|
   A|-------------------------------|-------------------------------|
   E|-------------------------------|-------------------------------|





   e|-7---------5-------------------|-------------------------------|
   B|---------------------8---------|-7---------5---------4---------|
   G|-------------------------------|-------------------------------|
   D|-------------------------------|-------------------------------|
   A|-------------------------------|-------------------------------|
   E|-------------------------------|-------------------------------|





   e|-------------------------------|-------------------------------|
   B|-5-----------------------------|-------------------------------|
   G|-------------------------------|-------------------------------|
   D|-------------------------------|-------------------------------|
   A|-------------------------------|---------------------2---------|
   E|-------------------------------|-------------------------------|





      VERSE


   e|-------------------------------|-------------------------------|
   B|-------------------------------|-------------------------------|
   G|-------------------------------|-------------------------------|
   D|-2-------------------4----2----|-1-----------------------------|
   A|-------------------------------|-----------2---------2---------|
   E|-------------------------------|-------------------------------|





   e|-------------------------------|-------------------------------|
   B|-------------------------------|-------------------------------|
   G|-------------------------------|-------------------------------|
   D|-2---------4---------5---------|-4-----------------------------|
   A|-------------------------------|-----------5---------5---------|
   E|-------------------------------|-------------------------------|




      G
   e|-------------------------------|-------------------------------|
   B|-------------------------------|-------------------------------|
   G|-------------------------------|-------------------------------|
   D|-5-------------------4----5----|-7-------------------7---------|
   A|-------------------------------|-----------7-------------------|
   E|-------------------------------|-------------------------------|





   e|-------------------------------|-------------------------------|
   B|-------------------------------|-------------------------------|
   G|-------------------------------|-------------------------------|
   D|-8-------------------8---------|-9-------------------8---10----|
   A|-----------9-------------------|-------------------------------|
   E|-------------------------------|-------------------------------|





   e|-------------------------------|-------------------------------|
   B|-------------------------------|-------------------------------|
   G|-7-------------------5----4----|-------------------------------|
   D|-------------------------------|-7-------------------7----9----|
   A|-------------------------------|-----------7-------------------|
   E|-------------------------------|-------------------------------|





   e|-------------------------------|-------------------------------|
   B|-------------------------------|-------------------------------|
   G|-5-----------------------------|-------------------------------|
   D|---------------------9----7----|-5-------------------5----7----|
   A|-------------------------------|-------------------------------|
   E|-------------------------------|-------------------------------|





   e|-------------------------------|-------------------------------|
   B|-------------------------------|-------------------------------|
   G|-------------------------------|-------------------------------|
   D|-9---------7---------5---------|-4---------2---------1---------|
   A|-------------------------------|-------------------------------|
   E|-------------------------------|-------------------------------|





   e|------0------------------------|---------------------7----8----|
   B|-----0-------------------------|-------------------------------|
   G|----0--------------------------|-------------------------------|
   D|---2---------------------------|-------------------------------|
   A|--2----------------------------|-------------------------------|
   E|-0-----------------------------|-------------------------------|





      BRIDGE


   e|-----------10--------10---8----|-----------8---------8---------|
   B|-------------------------------|-------------------------------|
   G|-------------------------------|-------------------------------|
   D|-------------------------------|-------------------------------|
   A|-------------------------------|-------------------------------|
   E|-------------------------------|-------------------------------|





   e|-----------8---------8---------|---7-----------------3----5----|
   B|-------------------------------|--8-------------3--------------|
   G|-------------------------------|-7-----------------------------|
   D|-------------------------------|-------------------------------|
   A|-------------------------------|-------------------------------|
   E|-------------------------------|-------------------------------|





   e|-7---------5-------------------|-------------------------------|
   B|---------------------8---------|-7---------5---------4---------|
   G|-------------------------------|-------------------------------|
   D|-------------------------------|-------------------------------|
   A|-------------------------------|-------------------------------|
   E|-------------------------------|-------------------------------|





   e|--------------------------0----|-12----------------------------|
   B|---------------------0---------|-------------------------------|
   G|----------------0--------------|-------------------------------|
   D|-----------2-------------------|-------------------------------|
   A|------2------------------------|-------------------------------|
   E|-0-----------------------------|-------------------------------|
Tap to rate this tab
# A B C D E F G H I J K L M N O P Q R S T U V W X Y Z