Guitaretab - guitar tabs
Song name
# A B C D E F G H I J K L M N O P Q R S T U V W X Y Z

Viatrophy - Self Portrait tab

-------------------------------------------------------------------------------
			  Self Portrait - Viatrophy
-------------------------------------------------------------------------------
Tabbed by: Finch
Email: imcursedtostone@aol.com

Tuning: DADGBe

e|---------------------------------------------------------------------------|
B|---------------------------------------------------------------------------|
G|---------------------------------------------------------------------------|
D|---------------------------------------------------------------------------|
A|------------66665555333311111111--33333301------------66665555333311111111-|
D|000-000-5555--------------------01--------444444445555---------------------|
PM                              ..
e|---------------------------------------------------------------------------|
B|---------------------------------------------------------------------------|
G|---------------------------------------------------------------------------|
D|---------------------------------------------------------------------------|
A|333-333-333-333-000-000-000-000-----66665555333311111111--33333301---------|
D|--------------------------------5555--------------------01--------44444444-|
PM                                                ..
e|---------------------------------------------------------------------------|
B|---------------------------------------------------------------------------|
G|---------------------------------------------------------------------------|
D|-------------------------------------------------------0-------------------|
A|----6666555333311111111--------------------------------0-------------------|
D|5555-------------------111-111-111-111-444-444-444-444-0-------------------|
PM                                             
e|---------------------------------------------------------------------------|
B|---------------------------------------------------------------------------|
G|-------------------------------------/8-75-75------------------------------|
D|------------------------------------------8--87---------------------1---0--|
A|-------------6-5h6---0-3-1------6-5h6----------------6-5h6---0-3-1-1-1-1-1-|
D|000-000-0-000-0---040-0-0--0-000-0--------------0-000-0---040-0-0-5---4----|
PM      .    .   . . . .  .    .              .    .   . . . . ..    .
e|---------------------------------------------------------------------------|
B|---------------------------------------------------------------------------|
G|--------------------------------------/8-75-75-----------------------------|
D|--1----------------------------------------8--87---------------------1---0-|
A|-1-1--1-------6-5h6---0-3-1------6-5h6----------------6-5h6---0-3-1-1-1-1-1|
D|4---14-4-0-000-0---040-0-0--0-000-0--------------0-000-0---040-0-0-5---4---|
PM..    . .    .   . . . .  .    .              .    .   . . . . ..    .
e|---------------------------------------------------------------------------|
B|---------------------------------------------------------------------------|
G|-------------------8---5-------------/75875h7p5------------8---5-----------|
D|--1-----------7-7h8-578-875--------------------87-----7-7h8-578-875--------|
A|-1-1--1-------------------------5-5h6------------------------------------5-|
D|4---14-4-5-555-5-----------4-444-4---------------5-555-5------------4-444-4|
PM..    . .    .           .    .               .    .            .    .
e|---------------------------------------------------------------------------|
B|---------------------------------------------------------------------------|
G|---------------------------------------------------------------------------|
D|------------------------------------0--------------------------------------|
A|5h6-----10-9h10-----8-6h8-----6-5h6-0--------------------------------------|
D|---8-888--8----5-555-5---4-444-4----0--------------------------------------|
PM   .     .    .    .   .    .
e|---------------------------------------------------------------------------|
B|---------------------------------------------------------------------------|
G|---------------------------------------------------------------------------|
D|---------------------------------------------------------------------------|
A|-------3-------3---0---1---3---1-------3-------3---0---1---3---1-----------|
D|5847584-5847584-014-014-014-014-5847584-5847584-014-014-014-014------------|
PM    .    .                .    .          

[ Tab from: http://www.guitaretab.com/v/viatrophy/157120.html ]
e|---------------------------------------------------------------------------|
B|---------------------------------------------------------------------------|
G|---------------------------------------------------------------------------|
D|---------------------------------------------------------------------------|
A|-------3-------3---0---1---3---1-------3-------3---0---1---3---1-----------|
D|5847584-5847584-014-014-014-014-5847584-5847584-014-014-014-014------------|
PM    .    .                .    .          
e|---------------------------------------------------------------------------|
B|---------------------------------------------------------------------------|
G|---------------------------------------------------------------------------|
D|---------------------------------------------------------------------------|
A|-------3-------3---0---1---3---1-------3-------3---0---1---3---1-----------|
D|5847584-5847584-014-014-014-014-5847584-5847584-014-014-014-014------------|
PM    .    .                .    .          
e|---------------------------------------------------------------------------|
B|---------------------------------------------------------------------------|
G|----------------^-----------------^-----------------^-----------------^----|
D|---------------[5]---------------[5]---------------[5]---------------[5]---|
A|---------------------------------------------------------------------------|
D|00--00--0541414---00--00--0541414---00--00--0541414---00--00--0541414------|
PM..  ..         ..  ..         ..  ..         ..  ..     
e|---------------------------------------------------------------------------|
B|---------------------------------------------------------------------------|
G|-----------------------------/8-75-75--------------------------------------|
D|----------------------------------8--87-0--00-0----------------------------|
A|-----6-5h6---0-3-1------6-5h6-----------0--00-0-6---5--3-------------------|
D|0-000-0---040-0-0--0-000-0--------------0--00-0----------------------------|
PM.    .   . . . .  .    .              .  .. .
e|---------------------------------------------------------------------------|
B|---------------------------------------------------------------------------|
G|-----------------------------/8-75-75--------------------------------------|
D|----------------------------------8--87---------------------1---0---1------|
A|-----6-5h6---0-3-1------6-5h6----------------6-5h6---0-3-1-1-1-1-1-1-1--1--|
D|0-000-0---040-0-0--0-000-0--------------0-000-0---040-0-0-5---4---4---14-4-|
PM.    .   . . . .  .    .              .    .   . . . . ..          .
e|---------------------------------------------------------------------------|
B|---------------------------------------------------------------------------|
G|-----------------------------/8-75-75--------------------------------------|
D|----------------------------------8--87---------------------1---0----1-----|
A|-----6-5h6---0-3-1------6-5h6----------------6-5h6---0-3-1-1-1-1-1--1-1--1-|
D|0-000-0---040-0-0--0-000-0--------------0-000-0---040-0-0-5---4----4---14-4|
PM.    .   . . . .  .    .              .    .   . . . . ..    . ..    .
e|---------------------------------------------------------------------------|
B|---------------------------------------------------------------------------|
G|----------8---5-------------/75875h7p5------------8---5--------------------|
D|-----7-7h8-578-875--------------------87-----7-7h8-578-875-----------------|
A|-----------------------5-5h6------------------------------------5-5h6------|
D|5-555-5-----------4-444-4---------------5-555-5------------4-444-4---------|
PM.    .           .    .               .    .            .    .
e|---------------------------------------------------------------------------|
B|---------------------------------------------------------------------------|
G|---------------------------------------------------------------------------|
D|---------------------------------------------------------------------------|
A|-----10-9h10---------------------------------------------------------------|
D|8-888--8----000-000---000-000---000-000-00-000-000-00-000-000-000-000---000|
PM.     .                          ..       ..                
e|---------------------------------------------------------------------------|
B|---------------------------------------------------------------------------|
G|-------8----------3---5----------------------------------------------------|
D|-------*----------*---*----------------------------------------------------|
A|-------6----------1---3----------------------------------------------------|
D|-000-------------------000-000---000-000---000-000-00-000-000-00-000-000---|
PM                                            ..       ..     



e|---------------------------------------------------------------------------|
B|---------------------------------------------------------------------------|
G|---------------------------------------------------------------------------|
D|---------------------------------------------------------------------------|
A|---------------------------------------------------------------------054141|
D|000-000---000-000---000-000-00-000-000-00-000-000-000-000---000-000--054141|
PM                      ..       ..                         .
e|---------------------------------------------------------------------------|
B|---------------------------------------------------------------------------|
G|-----------8-8-8-8---------------------------------------------------------|
D|----------------------------------8-77-810-88-1012-10-8-7-7h8p7p5--/87-87-5|
A|45-------------------------------------------------------------------------|
D|45-----------------1-1-1-1--3----------------------------------------------|
PM..
e|---------------------------------------------------------------------------|
B|---------------------------------------------------------------------------|
G|---------------------------------------------------------------------------|
D|7-8-10-12------------------------------------------------------------------|
A|---------------------------------------------------------------------------|
D|---------------17\-555-5-555-5-888-8-888-8-111-1-111-1-333-3-333-3-555-5---|
PM                      .    .    .    .    .    .    .    .    .                                
e|---------------------------------------------------------------------------|
B|---------------------------------------------------------------------------|
G|---------------------------------------------------------------------------|
D|---------------------------------------------------------------------------|
A|---------------------------------------------------------------------------|
D|555-5-888-8-888-8-111-1-111-1----------------------------------------------|
PM   .    .    .    .    .

SOLO
e|---------------------------------------------------------------------------|
B|11-11-8-8-11-11-8-8-10-10-8-8-13-13-8-8-11-11-8-8-10-10-8-8-11-11-8-8-13-13|
G|---------------------------------------------------------------------------|
D|---------------------------------------------------------------------------|
A|---------------------------------------------------------------------------|
D|---------------------------------------------------------------------------|

e|---------------------------5-5---------------------------5-5---------------|
B|8-8-8-8-4-4-6-6-4-4-8-8-4-4---4-4-8-8-4-4-6-6-4-4-8-8-4-4---4-4-10-10-6-6-8|
G|---------------------------------------------------------------------------|
D|---------------------------------------------------------------------------|
A|---------------------------------------------------------------------------|
D|---------------------------------------------------------------------------|

e|-----------------6-6---------------------------------6-6-------------------|
B|-8-6-6-10-10-6-6-----6-6-10-10-6-6-8-8-6-6-10-10-6-6-----6-6-11-11-8-8-10--|
G|---------------------------------------------------------------------------|
D|---------------------------------------------------------------------------|
A|---------------------------------------------------------------------------|
D|---------------------------------------------------------------------------|
                                                               ^  ^
e|-------------------------------------------------------------11-11-10-11--8|
B|10-8-8-11-11-8-8-13-13--11-11-8-8-10-10-8-8-11-11-8-8-13-13----------------|
G|---------------------------------------------------------------------------|
D|---------------------------------------------------------------------------|
A|---------------------------------------------------------------------------|
D|---------------------------------------------------------------------------|

Not sure about this email me if you work it out!

e|-------------6h8p6-----6hp8-----6h8p6--8----11--10-6-5-\-------------------|
B|10h11p10p8-68-----86-68----86-68-----86--10--------------------------------|
G|----------8---------8--------8---------------------------------------------|
D|---------------------------------------------------------------------------|
A|---------------------------------------------------------------------------|
D|---------------------------------------------------------------------------|
e|---------------------------------------------------------------------------|
B|---------------------------------------------------------------------------|
G|---------------------------------------------------------------------------|
D|---------------------------------------------------------------------------|
A|--33333301------------66665555333311111111---------------------------------|
D|01--------444444445555--------------------111-111-111-111-444-444-444-444--|
PM..                                                              



| /  slide up
| \  slide down
| h  hammer-on
| p  pull-off
| ~  vibrato
| +  harmonic
| *  Mute note
| [] Artificial pinch harmonic
| ^  Bend
===============================================================================
Related for Self Portrait tab