Song name
# A B C D E F G H I J K L M N O P Q R S T U V W X Y Z

Vincent Vincent And The Villains - Killing Time tab

-----------------------------------------------------------------------
		KILLING TIME - Vincent Vincent and the Villains
-----------------------------------------------------------------------

Tabbed by: Jon C
Album: Gospel Bombs

Tuning: Standard EADGbe

Chords used

     C   Am    F*   G*  E   G7  F   G
e|---8----5-------------0---1---1---3-----|
B|---8----5---10---12---0---0---1---3-----|
G|---9----5---10---12---1---0---2---4-----|
D|---10---7---10---12---2---0---3---5-----|
A|---10---7---8----10---2---2---3---5-----|
E|---8----5-------------0---3---1---3-----|
     
       C		      Am
Intro                     
e|-----8-----------------5-5-5-5-5-5-------------|
B|-----8-8-8-8-8-8-8-----5-----------8-5---------|
G|-----9-------------9---5-----------------------|
D|-----------------------------------------------|
A|-----------------------------------------------|
E|-----------------------------------------------|


Verse
     C             Am
e|------8--8-8-------5-5-5------|
B|------8--8-8-------5-5-5------|
G|---9--9--9-9-----5-5-5-5------|
D|---10-10---10----7-7---7------|
A|---10-10---10----7-7---7------|
E|---8--8----8-----5-5---5------|


C                   Am
I've got a stack of 45s
C                       Am
An I'm playing each one twice
C                        Am
Now some might find this boring
F*                     G*
but I say it's kind of paradise


I could listen to the sound of flamingos all day
the racing and silhouettes
and I don't need no reasons
to spend the day smoking ciggarettes


       F              G
All my friends worry about me
       E                   F
when I tell them I'm doing fine
                   Dm
just sitting by my record player
  G7
killing ti-i-i-i-ime


   C    Am      C            Am
Woah, woah, I'm killing time yeah
      C        Am
Just killing time
    F         G
woah, woah, alright


     C                              Am
e|---8...---------------------------5...------|
B|---8...---------------------------5...------|
G|---9...---------------------------5...------|
D|--------------------------------------------|
A|--------------------------------------------|
E|--------------------------------------------|
     Now Roy Orbison's voice goes soaring...

     F                    G
e|---13...----------------15...------|
B|---10...----------------12...------|
G|---10...----------------12...------|
D|-----------------------------------|
A|-----------------------------------|
E|-----------------------------------|
     Singing Roy Orbison tunes...


C
Now Roy Orbison's voice
      Am
goes soaring across my living room
     C
and the rest of the day
      Am
I'll dream away
F                   G
singing Roy Orbison tunes



  Riff 1                                       Riff 2
e|------8--8-8--8---11-11-11-11-11-8-----------------13-10------------3----|
B|------8--8-8--8--------------------10-8--x3------10------13-10-----3-3---|
G|------9--9-9--9--------------------------------10-----------------4---4--|
D|---10-10------10-----------------------------12------------------5-----5-|
A|---10-10------10---------------------------------------------------------|
E|---8--8-------8----------------------------------------------------------|
     Now some people think that...
    


Riff 1
Now some people think that to work their days away
                      
is a far better thing to do

but I say to them

if they all had my record collection

Riff 2
you know they'd all be doing it too


       F              G
All my friends worry about me
       E                   F
when I tell them I'm doing fine
                    Dm
just sitting by my record player
  G7
killing ti-i-i-i-ime


Woah, yeah... C / Am

Intro riff x2

Ending

e|--8-----------------10--12--5----|
B|--8-8-8-8-8-8-8-----10--12--5----|
G|--9-------------9---10--12--5----|
D|---------------------------------|
A|---------------------------------|
E|---------------------------------|


============================================================================
Tap to rate this tab
 
# A B C D E F G H I J K L M N O P Q R S T U V W X Y Z