Song name
# A B C D E F G H I J K L M N O P Q R S T U V W X Y Z

Vines - In The Jungle tab

----------------------------------------------------------------------------
			  In The Jungle - The Vines
----------------------------------------------------------------------------


Intro:
e|-------------------------|
B|-------------------------|
G|-------------------------|
D|-------2-0---------2-0---|
A|-----2-----2-----2-----2-|
E|-0-0---------0-0---------| x4


Verse:
e|-------------------------|
B|-------------------------|
G|-------------------------|
D|-------2-0---------2-0---|
A|-----2-----2-----2-----2-|
E|-0-0---------0-0---------| x8


Slow bit:
e|-----------------------------------------------------------|
B|-----------------------------------------------------------|
G|----------------------------------------------6-6-6--4-4-4-|
D|-----2--------------2--------------2----------7-7-7--5-5-5-|
A|---2---1-1-0------2---1-1-0------2---1-1-0----7-7-7--5-5-5-|
E|-0-----------3--0-----------3--0-----------3--5-5-5--3-3-3-| x2


Pre Chorus:
e|-----------|
B|-------0-0-|
G|-------0-0-|
D|-------2-2-|
A|-------2-2-|
E|-0-5b7-0-0-| x8


Chorus:
e|-----------------------------------------------------------|
B|-----------------------------------------------------------|
G|----------------------------------------------6-6-6--4-4-4-|
D|-----2--------------2--------------2----------7-7-7--5-5-5-|
A|---2---1-1-0------2---1-1-0------2---1-1-0----7-7-7--5-5-5-|
E|-0-----------3--0-----------3--0-----------3--5-5-5--3-3-3-| x2


Solo 1: NB Hit the bracketed notes loads of times.
         Listen to the record and you'll understand
e|----------------------------------------------------15-15-15-12------------|
B|-(8)-(10)-12-15b17-15b17-15-12-8--------------8-10-------------15b17-17-17-|
G|---------------------------------6-6-6--4-4-4------------------------------|
D|---------------------------------7-7-7--5-5-5------------------------------|
A|---------------------------------7-7-7--5-5-5------------------------------|
E|---------------------------------5-5-5--3-3-3------------------------------|

e|--------------------------------------|
B|-15-12------------------------8-------|
G|-------8b9-9-9-9-7--7-9-7-9-9---9-7-9-|
D|--------------------------------------|
A|--------------------------------------|
E|--------------------------------------|


Interlude:
Strum these chords x4
First two times palm muted

F#, C, B, F#


Solo 2:
e|----------------------------------------------------|
B|----------------------------------------------------|
G|-11-11-11-11-9-9-9-11-11-11-11-9-9-9-5-5-5-5-4-4----|
D|--------------------------------------------------4-|
A|----------------------------------------------------|
E|----------------------------------------------------|

e|------------------------------------------------------|
B|------------------------------------------------------|
G|-11-11-11-11-9-9-9-11-11-11-11-12-12-14-12-11-12-11-9-|
D|------------------------------------------------------|
A|------------------------------------------------------|
E|------------------------------------------------------|


Verse:
e|-------------------------|
B|-------------------------|
G|-------------------------|
D|-------2-0---------2-0---|
A|-----2-----2-----2-----2-|
E|-0-0---------0-0---------| x8


Slow bit:
e|-----------------------------------------------------------|
B|-----------------------------------------------------------|
G|----------------------------------------------6-6-6--4-4-4-|
D|-----2--------------2--------------2----------7-7-7--5-5-5-|
A|---2---1-1-0------2---1-1-0------2---1-1-0----7-7-7--5-5-5-|
E|-0-----------3--0-----------3--0-----------3--5-5-5--3-3-3-|


Pre Chorus:
e|-----------------------------------------------|
B|-------0-0--------0-0--------0-0---------------|
G|-------0-0--------0-0--------0-0--6-6-6--4-4-4-|
D|-------2-2--------2-2--------2-2--7-7-7--5-5-5-|
A|-------2-2--------2-2--------2-2--7-7-7--5-5-5-|
E|-0-5b7-0-0--0-5b7-0-0--0-5b7-0-0--5-5-5--3-3-3-| x2


Chorus:
e|-----------------------------------------------|
B|-------0-0--------0-0--------0-0---------------|
G|-------0-0--------0-0--------0-0--6-6-6--4-4-4-|
D|-------2-2--------2-2--------2-2--7-7-7--5-5-5-|
A|-------2-2--------2-2--------2-2--7-7-7--5-5-5-|
E|-0-5b7-0-0--0-5b7-0-0--0-5b7-0-0--5-5-5--3-3-3-| x2

e|-----------------------------------------------------------|
B|-----------------------------------------------------------|
G|----------------------------------------------6-6-6--4-4-4-|
D|-----2--------------2--------------2----------7-7-7--5-5-5-|
A|---2---1-1-0------2---1-1-0------2---1-1-0----7-7-7--5-5-5-|
E|-0-----------3--0-----------3--0-----------3--5-5-5--3-3-3-| x2

| /  slide up
|   slide down
| h  hammer-on
| p  pull-off
| ~  vibrato
| +  harmonic
| x  Mute note
============================================================================
Tap to rate this tab
 
# A B C D E F G H I J K L M N O P Q R S T U V W X Y Z