Song name
# A B C D E F G H I J K L M N O P Q R S T U V W X Y Z

Viniloversus - Dos Secretos tab

-------------------------------------------------------------------------------
			     Dos Secretos - Viniloversus
-------------------------------------------------------------------------------
Tabbed by: Andrew2xtreme
Email: Andrew2xtreme@Gmail.com

He Visto Esta Tab En otros sitios y me parece algo incorrecto por eso decidi hacer la
mia con la cual creo que esta correcta, puse los acordes correspondientes(En Cifrado)
encima de la tab, y el rasgueo preferiblemente lo saques a oido por que aca no puedo 
asegurar que este un 100% Correcto
al final esta la estructura de la cancion

Tuning: Standard

Intro  E-/G                     G                                           X2
e|--0---0---0---0------10--10--10--10--10--10--------------------------------|
B|--8---8---8---8-------8---8---8---8---8---8--------------------------------|
G|--0---0---0---0-------0---0---0---0---0---0--------------------------------|
D|--9---9---9---9-------9---9---9---9---9---9--------------------------------|
A|-10--10--10--10------10--10--10--10--10--10--------------------------------|
E|---------------------------------------------------------------------------|
       Em9                       D add4
e|--0---0---0---0-------5---5---5---5---5---5--------------------------------|
B|--3---3---3---3-------3---3---3---3---3---3--------------------------------|
G|--0---0---0---0-------0---0---0---0---0---0--------------------------------|
D|--4---4---4---4-------4---4---4---4---4---4--------------------------------|
A|--5---5---5---5-------5---5---5---5---5---5--------------------------------|
E|---------------------------------------------------------------------------|
         C                      Cmaj
e|--0---0---0---0-------3---3---3---3---3---3--------------------------------|
B|--1---1---1---1-------1---1---1---1---1---1--------------------------------|
G|-*0---0---0---0-------0---0---0---0---0---0-------------------------------*|
D|-*2---2---2---2-------2---2---2---2---2---2-------------------------------*|
A|--3---3---3---3-------3---3---3---3---3---3--------------------------------|
E|---------------------------------------------------------------------------|
		    Se Repite 2 veces esta ultima parte

Verso
    C  Em9         E-/G                                 G                   X2
e|--0----0------0--0--0--0--0--0--0--0--0--10--10--10--10--10--10--10--10--10|
B|--0----3------8--8--8--8--8--8--8--8--8---8---8---8---8---8---8---8---8---8|
G|--0----0------0--0--0--0--0--0--0--0--0---0---0---0---0---0---0---0---0---0|
D|--2----4------9--9--9--9--9--9--9--9--9---9---9---9---9---9---9---9---9---9|
A|--3----5-----10--10-10-10-10-10-10-10-10-10--10--10--10--10--10--10--10--10|
E|-------0-------------------------------------------------------------------|

Precoro
e|-0---|
B|-0---|
G|-0---|
D|-2---|
A|-3---|
E|-----|

Coro   E-              C          Amaj/E   F#M7add4   B7/F#                X2
e|0-0-0-0-0-0----0-0-0-0-0-0----0-0-0-0-0----2-2---2-2-2-2-------------------|
B|0-0-0-0-0-0----1-1-1-1-1-1----2-2-2-2-2----5-5---4-4-4-4-------------------|
G|0-0-0-0-0-0----0-0-0-0-0-0----2-2-2-2-2----2-2---2-2-2-2-------------------|
D|2-2-2-2-2-2----2-2-2-2-2-2----2-2-2-2-2----4-4---4-4-4-4-------------------|
A|2-2-2-2-2-2----3-3-3-3-3-3----0-0-0-0-0----2-2---2-2-2-2-------------------|
E|0-0-0-0-0-0----0-0-0-0-0-0----0-0-0-0-0----2-2---2-2-2-2-------------------|

pre-verso  E-/G
e|--0---0---0---0-------xxxxxxxxxxxxx----------------------------------------|
B|--8---8---8---8-------xxxxxxxxxxxxx----------------------------------------|
G|--0---0---0---0-------xxxxxxxxxxxxx----------------------------------------|
D|--9---9---9---9-------xxxxxxxxxxxxx----------------------------------------|
A|-10--10--10--10-------xxxxxxxxxxxxx----------------------------------------|
E|----------------------xxxxxxxxxxxxx----------------------------------------|
        Em9
e|--0---0---0---0-------xxxxxxxxxxxxx----------------------------------------|
B|--3---3---3---3-------xxxxxxxxxxxxx----------------------------------------|
G|--0---0---0---0-------xxxxxxxxxxxxx----------------------------------------|
D|--4---4---4---4-------xxxxxxxxxxxxx----------------------------------------|
A|--5---5---5---5-------xxxxxxxxxxxxx----------------------------------------|
E|----------------------xxxxxxxxxxxxx----------------------------------------|
        C
e|-0---0---0---0--------xxxxxxxxxxxxx----------------------------------------|
B|-1---1---1---1--------xxxxxxxxxxxxx----------------------------------------|
G|*0---0---0---0--------xxxxxxxxxxxxx---------------------------------------*|
D|*2---2---2---2--------xxxxxxxxxxxxx---------------------------------------*|
A|-3---3---3---3--------xxxxxxxxxxxxx----------------------------------------|
E|----------------------xxxxxxxxxxxxx----------------------------------------|
		    Se Repite 2 veces esta ultima parte

Verso 2
    C   Em9            E-/G                              G
e|--0----0------0--0--0--0--0--0--0--0--0--10--10--10--10--10--10--10--10--10|
B|--0----3------8--8--8--8--8--8--8--8--8---8---8---8---8---8---8---8---8---8|
G|--0----0------0--0--0--0--0--0--0--0--0---0---0---0---0---0---0---0---0---0|
D|--2----4------9--9--9--9--9--9--9--9--9---9---9---9---9---9---9---9---9---9|
A|--3----5-----10--10-10-10-10-10-10-10-10-10--10--10--10--10--10--10--10--10|
E|-------0-------------------------------------------------------------------|
         C                E-/G
e|-0-0-0-0-0-0-0-0----0-0-0-0-0-0-0------------------------------------------|
B|-0-0-0-0-0-0-0-0----3-3-3-3-3-3-3------------------------------------------|
G|-0-0-0-0-0-0-0-0----0-0-0-0-0-0-0------------------------------------------|
D|-2-2-2-2-2-2-2-2----4-4-4-4-4-4-4------------------------------------------|
A|-3-3-3-3-3-3-3-3----5-5-5-5-5-5-5------------------------------------------|
E|---------------------------------------------------------------------------|
               E-G                         G
e|---0--0--0--0--0--0--0--0--0--10--10--10--10--10--10--10--10--10-----------|
B|---8--8--8--8--8--8--8--8--8---8---8---8---8---8---8---8---8---8-----------|
G|---0--0--0--0--0--0--0--0--0---0---0---0---0---0---0---0---0---0-----------|
D|---9--9--9--9--9--9--9--9--9---9---9---9---9---9---9---9---9---9-----------|
A|--10--10-10-10-10-10-10-10-10-10--10--10--10--10--10--10--10--10-----------|
E|---------------------------------------------------------------------------|

Precoro
e|-0-0-0-|
B|-0-0-0-|
G|-0-0-0-|
D|-2-2-2-|
A|-3-3-3-|
E|-------|

Coro   E-            C             Amaj/E  F#m7add4 B7/F#                  X2
e|0-0-0-0-0-0----0-0-0-0-0-0----0-0-0-0-0----2-2---2-2-2-2-------------------|
B|0-0-0-0-0-0----1-1-1-1-1-1----2-2-2-2-2----5-5---4-4-4-4-------------------|
G|0-0-0-0-0-0----0-0-0-0-0-0----2-2-2-2-2----2-2---2-2-2-2-------------------|
D|2-2-2-2-2-2----2-2-2-2-2-2----2-2-2-2-2----4-4---4-4-4-4-------------------|
A|2-2-2-2-2-2----3-3-3-3-3-3----0-0-0-0-0----2-2---2-2-2-2-------------------|
E|0-0-0-0-0-0----0-0-0-0-0-0----0-0-0-0-0----2-2---2-2-2-2-------------------|

Estructura de la cancion        Estructura de la cancion en el video
Intro                           Intro
verso                           Verso
Precoro                         Precoro
Coro                            Coro
Preverso                        Preverso
Verso2                          Verso2
Precoro                         Precoro
Coro                            Coro
Coro(solo guitarra)             Coro(solo De Bajo)
Coro                            Coro (Solo Guitarra)
                                Coro


************************************

| /   slide up
| \   slide down
| h   hammer-on
| p   pull-off
| ~   vibrato
| +   harmonic
| x   Mute note
| b   Bend
| pb  Pre-bend
| br  Bend release
| pbr Pre-bend release
| brb Bend release bend

************************************
Tap to rate this tab
 
# A B C D E F G H I J K L M N O P Q R S T U V W X Y Z