Guitaretab - guitar tabs
Song name
# A B C D E F G H I J K L M N O P Q R S T U V W X Y Z

Vision Of Disorder - Without You tab

Band- Vision Of Disorder
Song- Without You

Intro
00:01-00:13
d||--------------------------------------------------------------------||
a||--------------------------------------------------------------------||
F||--------------------------------------------------------------------||
C||-2-3-2---2-3/4--4/64-3-3^-3-2--x-x-x-x------------------------------||
G||-2-3-2---2-3/4--4/64-3----3-2--x-x-x-x------------------------------||
D||-0-1-0--0-1/2--2/42-1----1-0--x-x-x-x-2-3^-1^----------------------||
A||--------------------------------------------------------------------||

                                    H*
d||--------------------------------------------------------------------||
a||--------------------------------------------------------------------||
F||--------------------------------------------------------------------||
C||-2-3-2---2-3/4--4/64-3-3^-3-2---------------------------------------||
G||-2-3-2---2-3/4--4/64-3----3-2---------------------------------------||
D||-0-1-0--0-1/2--2/42-1----1-05*------2-3^-1^-----------------------||
A||--------------------------------------------------------------------||

Verse
00:14-00:38                                                                              
                                    X4
d||--------------------------------------------------------------------||
a||--------------------------------------------------------------------||
F||--------------------------------------------------------------------||
C||-2-3-2---2-3/4--4/64-3-3^-3-2--x-x-x-x------------------------------||
G||-2-3-2---2-3/4--4/64-3----3-2--x-x-x-x------------------------------||
D||-0-1-0--0-1/2--2/42-1----1-0--x-x-x-x-2-3^-1^----------------------||
A||--------------------------------------------------------------------||


Chorus
00:39-00:57
Guitar 1                                                                                 
                                         X2
d||------------------------------------------------------------------||
a||------------------------------------------------------------------||
F||--8-8-8-8-8-8-8-8-6-6-6-6-6-6-6-6-5-5-5-5-5-5-5-5-5-5-5-5-5-5-5-5-||
C||------------------------------------------------------------------||
G||------------------------------------------------------------------||
D||------------------------------------------------------------------||
A||------------------------------------------------------------------||

Guitar 2                                                                                 
                                         X2
d||------------------------------------------------------------------||
a||------------------------------------------------------------------||
F||------------------------------------------------------------------||
C||-6-6-6-6-6--4-4-4--4-3-3-3-3-3--8--3-3-3-3-3----------------------||
G||-6-6-6-66--4-4-4--4-3-3-3-3-3--8--3-3-3-3-3--7-------------------||
D||-4-4-4-4-4--2-2-2--2-1-1-1-1-1--6--1-1-1-1-1--7-------------------||
A||----------------------------------------------5-------------------||

Guitar 1 and 2                                       N.H.
d||----------------------------------------------------*-------------||
a||----------------------------------------------------*-------------||
F||----------------------------------------------------*-------------||
C||----------------------------------------------------*-------------||
G||----------------------------------------------------*-------------||
D||-1-1-1-1-1-6^-1-1-1-1-1-----1-1-1-1-1-6^--1-1-1-1-1-*-------------||
A||------------------------5^--------------------------*-------------||

Verse
00:58-01:21                                                                              
                                    X4
d||--------------------------------------------------------------------||
a||--------------------------------------------------------------------||
F||--------------------------------------------------------------------||
C||-2-3-2---2-3/4--4/64-3-3^-3-2--x-x-x-x------------------------------||
G||-2-3-2---2-3/4--4/64-3----3-2--x-x-x-x------------------------------||
D||-0-1-0--0-1/2--2/42-1----1-0--x-x-x-x-2-3^-1^----------------------||
A||--------------------------------------------------------------------||
[ Tab from: http://www.guitaretab.com/v/vision-of-disorder/139646.html ]
Chorus
01:22-01:34
Guitar 1                                                                                 
                                         X2
d||------------------------------------------------------------------||
a||------------------------------------------------------------------||
F||--8-8-8-8-8-8-8-8-6-6-6-6-6-6-6-6-5-5-5-5-5-5-5-5-5-5-5-5-5-5-5-5-||
C||------------------------------------------------------------------||
G||------------------------------------------------------------------||
D||------------------------------------------------------------------||
A||------------------------------------------------------------------||

Guitar 2                                                                                 
                                         X2
d||------------------------------------------------------------------||
a||------------------------------------------------------------------||
F||------------------------------------------------------------------||
C||-6-6-6-6-6--4-4-4--4-3-3-3-3-3--8--3-3-3-3-3----------------------||
G||-6-6-6-66--4-4-4--4-3-3-3-3-3--8--3-3-3-3-3--7-------------------||
D||-4-4-4-4-4--2-2-2--2-1-1-1-1-1--6--1-1-1-1-1--7-------------------||
A||----------------------------------------------5-------------------||

Interlude
01:35-01:47                                                                              
                                     X4
d||------------------------------------------------------------------||
a||------------------------------------------------------------------||
F||------------------------------------------------------------------||
C||------------------------------------------------------------------||
G||------------------------------------------------------------------||
D||-1-1-1-1-1-6^-1-1-1-1-1-------------------------------------------||
A||------------------------5^----------------------------------------||

01:47-02:17
d||------------------------------------------------------------------||
a||------------------------------------------------------------------||
F||------------------------------------------------------------------||
C||------------------------------------------------6-----------------||
G||------------------------------3-3-3-4-3-7-6-6-7-6-----------------||
D||--------------------4---------3-3-3-4-3-7-6-6-7-4-----------------||
A||-1-1-1-2-1-5-4-4-5------------1-1-1-2-1-5-4-4-5-------------------||

Verse
02:18-02:42                                                                              
                                    X4
d||------------------------------------------------------------------||
a||------------------------------------------------------------------||
F||------------------------------------------------------------------||
C||-2-3-2---2-3/4--4/64-3-3^-3-2--x-x-x-x----------------------------||
G||-2-3-2---2-3/4--4/64-3----3-2--x-x-x-x----------------------------||
D||-0-1-0--0-1/2--2/42-1----1-0--x-x-x-x-2-3^-1^--------------------||
A||------------------------------------------------------------------||

Chorus
02:43-02:54
Guitar 1                                                                                 
                                        X2
d||------------------------------------------------------------------||
a||------------------------------------------------------------------||
F||--8-8-8-8-8-8-8-8-6-6-6-6-6-6-6-6-5-5-5-5-5-5-5-5-5-5-5-5-5-5-5-5-||
C||------------------------------------------------------------------||
G||------------------------------------------------------------------||
D||------------------------------------------------------------------||
A||------------------------------------------------------------------||

Guitar 2                                                                                 
                                         X2
d||------------------------------------------------------------------||
a||------------------------------------------------------------------||
F||------------------------------------------------------------------||
C||-6-6-6-6-6--4-4-4--4-3-3-3-3-3--8--3-3-3-3-3----------------------||
G||-6-6-6-66--4-4-4--4-3-3-3-3-3--8--3-3-3-3-3--7-------------------||
D||-4-4-4-4-4--2-2-2--2-1-1-1-1-1--6--1-1-1-1-1--7-------------------||
A||----------------------------------------------5-------------------||

Interlude
02:55-03:07                                                                              
                                     X4
d||------------------------------------------------------------------||
a||------------------------------------------------------------------||
F||------------------------------------------------------------------||
C||------------------------------------------------------------------||
G||------------------------------------------------------------------||
D||-1-1-1-1-1-6^-1-1-1-1-1-------------------------------------------||
A||------------------------5^----------------------------------------||



03:08-03:13
d||-----------------------|------------------------------------------||
a||-----------------------|------------------------------------------||
F||-----------------------|------------------------------------------||
C||-----------------------|--*Feedback*------------------------------||
G||-----------------------|------------------------------------------||
D||--------------------4-|-------------------------------------------||
A||-1-1-1-2-1-5-4-4-5-----|------------------------------------------||
Related for Without You tab