Song name
# A B C D E F G H I J K L M N O P Q R S T U V W X Y Z

Volbeat - Fallen tab

-------------------------------------------------------------------------------
			     Fallen - Volbeat
-------------------------------------------------------------------------------
Tabbed by: Dreamreaper12
Email: dannyn12@live.com

Tuning: DADGBe

  Guitar I
e|---------------------------------------------------------------------------|
B|---------------------------------------------------------------------------|
G|---------------------------------------------------------------------------|
D|--------------------------------11p9-----9-----9--11--12--11-9-11----------| X2
A|-7h9-----9-----9-----------9-----0---0-0-0-0-0-0-0-0-0-0-0-0-0-0-----------|
D|-0---0-0-0-0-0-0-0-0-0-0-0-0-0-0-------------------------------------------|
       * *   * *   * * * * *   * *      * *   * *  *   *   *
  Guitar I
e|---------------------------------------------------------------------------|
B|---------------------------------------------------------------------------|
G|---------------------------------------------------------------------------|
D|--------------------------------11p9-----9-----9--11--12--11-9-11----------|
A|-7h9-----9-----9-----------9-----0---0-0-0-0-0-0-0-0-0-0-0-0-0-0-----------|
D|-0---0-0-0-0-0-0-0-0-0-0-0-0-0-0-------------------------------------------|
       * *   * *   * * * * *   * *      * *   * *  *   *   *
  Guitar II
e|---------------------------------------------------------------------------|
B|---------------------------------------------------------------------------|
G|-7-------------------------------------------------------------------------|
D|-7-------------------------------------------------------------------------|
A|-5-------------------------------------------------------------------------|
D|---------------------------------------------------------------------------|
  (Strum this)

  Guitar I
e|---------------------------------------------------------------------------|
B|---------------------------------------------------------------------------|
G|---------------------------------------------------------------------------|
D|--------------------------------11p9-----9-----9--11--12--11-9-11----------| X2
A|-7h9-----9-----9-----------9-----0---0-0-0-0-0-0-0-0-0-0-0-0-0-0-----------|
D|-0---0-0-0-0-0-0-0-0-0-0-0-0-0-0-------------------------------------------|
       * *   * *   * * * * *   * *      * *   * *  *   *   *

   Guitar II
e|---------------------------------------------------------------------------|
B|---------------------------------------------------------------------------|
G|-7-------------------------------7-----------------------------------------|
D|-7-------------------------------7-----------------------------------------| X2
A|-5-------------------------------5-----------------------------------------|
D|---------------------------------------------------------------------------|
            (Strum these)

That's all I've got for now. I'm planning on tabbing out the entire song.
Hopefully I'll be able to get it up soon.
If you have any suggestions or possible corrections I would gladly have anyone voice 
them, I want this to be as accurate as possible.
************************************

| /   slide up
| \   slide down
| h   hammer-on
| p   pull-off
| ~   vibrato
| +   harmonic
| x   Mute note
| b   Bend
| pb  Pre-bend
| br  Bend release
| pbr Pre-bend release
| brb Bend release bend
| *   Palm Mute

************************************
Tap to rate this tab
 
# A B C D E F G H I J K L M N O P Q R S T U V W X Y Z