Song name
# A B C D E F G H I J K L M N O P Q R S T U V W X Y Z

Volbeat - Making Believe chords

Highlighted       Show chord diagrams
Making believe volbeat Standar Tunning

               Bb      Eb      F

e--|---------------------|
B--|---------------------|
G--|-----------8------10-|
D--|----8------8------10-|
A--|----8------6------8--|
E--|----6------6------8--|

Intro: (let chords ring)

Bb        Bb   Eb                 Bb      Bb
Making believe...that you still love me
       F     F               Bb   Bb
It's leaving me...alone and so blue
          Bb  Bb                  Eb        Bb
I'll always dream...but I'll never own you
      F    F                      Bb
Making believe...that's all I can do


Verse 1:
        Bb   Eb                 Bb
Making believe...that you still love me
       F                      Bb
It's leaving me...alone and so blue
           Bb   Eb                  Bb
I'll always dream...but I'll never own you
      F                        Bb
Making believe...is all I can do



Verse 2:
             F                                 Bb
I can't hold you close...darling when you're not with me
           F                        Bb
You're somebody's love...you'll never be mine
      Bb      Eb               Bb
Making believe...I'll spend my lifetime
   F                    Bb
Loving you...and making believe


Solo A:
e-|-------------------------------------------------------------------------|
B-|-------------------------------------------------------------------------|
G-|-------------------------------------------------------------------------|
D-|-------------------------------------------------------------------------|
A-|-5-5-----5-8-10-9-9-10-9-9-9~-5--5-5-------5-5-5-6h5---------------------|
E-|-----8-6----------------------------8-6-5-8----------8-6-----------------|

Solo B:
e-|-------------------------------------------------------------------------|
B-|-------------------------------------------------------------------------|
G-|-7-7------7-8b10--12-10-10-12-10-10-10~-7--7-7-7----------7-7-7-8-7------|
D-|-----10-8----------------------------------------10-8-7-10----------10-8-|
A-|-------------------------------------------------------------------------|
E-|-------------------------------------------------------------------------|

Repeat Verse 2, Repeat Solo B, Repeat Verse 1, Repeat Verse 2

End:
       F                   Bb
Just loving you...and making believe
       F
Just loving you...
                 Bb  Eb Bb Bb Bb
...and making believe


I didnt come up with this tab, saw it on youtube and sounded right, decided to write 
down the tab and made
slight mods, enjoy or shut the f up ;)

Truly yours Rum Gary
Tap to rate this tab
# A B C D E F G H I J K L M N O P Q R S T U V W X Y Z