Song name
# A B C D E F G H I J K L M N O P Q R S T U V W X Y Z

Voltaire - The Beast Of Pirates Bay tab

Beast of Pirate Bay by Voltaire
If you're looking at this you must like Voltaire. Well, so do I. I made this special tab 
of one of his songs, "The Beast Of Pirate Bay" because most of the tabs for his songs 
are just chords. enjoy.

Intro
|------------------------------------------------|
|------------------------------------------------|
|----------6---------6---------6----------6------|
|--5-5-5---5-5-5----5-5-5----5-5-5---------------|
|------------------------------------------------|
|------------------------------------------------|
x2

Verses x5
|-------------------------------------------------|
|-------------------------------------------------|
|-------------------------------------------------|
|--5----5----5----5----5-5-5-5-5----5-------------|
|-----6----6----6----6-6-6-6-6----6----6----------|
|-------------------------------------------------|

|--------------------------------------------------|
|--------------------------------------------------|
|--------------------------------------------------|
|--------------------------------------------------|
|--6----6--6---6-6---6-6----6-6----6---------------|
|-----7-------7------7------7-------7--------------|

Chorus
|---------------------------------------------|
|---------------------------------------------|
|------6-6-6---------6---------6---------6----|
|---5---------5-5-5----5-5-5---5-5-5----------|
|---------------------------------------------|
|---------------------------------------------|
x2

Sad Tale
|------------------------------------------------------|
|------------------------------------------------------|
|------------------------------------------------------|
|------------------------------------------------------|
|---5---------5-5----------5-5------5-5----------------|
|------4-4-4-----4-4-4--------4-4----------------------|
x2

|-----------------------------------------------------|
|-----------------------------------------------------|
|-----------------------------------------------------|
|-----------------------------------------------------|
|-----5-5-------5-5-------5-5--------5-5--------------|
|--4------4--4-------4-4-------4--4-------------------|

Outro
|----------------------------------------------------|
|----------------------------------------------------|
|----------------------------------------------------|
|----------------------------------------------------|
|--5----5----5----5----5-5------5----5---------------|
|-----6----6----6----6------6-6----6----6------------|
x2
|-------------------------------------------|
|-------------------------------------------|
|-------------------------------------------|
|-------------------------------------------|
|-5-5-5----5--------------------------------|
|---------4----4----------------------------|

That's it. Just warning you it's a five minute song. Also if you want the chords look on 
this site. Enjoy.
Tap to rate this tab
 
# A B C D E F G H I J K L M N O P Q R S T U V W X Y Z