Song name
# A B C D E F G H I J K L M N O P Q R S T U V W X Y Z

War - Dont Let No One Get You Down tab

I was surprised this wasn't posted

now it is

e:--3---3--------------------------------|
b:---4---4----------------3---3---3--3---|
g:----5---5-----5--5------4---4---4---4--|
d:-------------3--3------5---5---5-----5-|
a:------------4--------3--------3--------|
e:--------------4-----------3------------|

e:-----3------------------------|
b:----4-4-------4-----3--3----3-|
g:---5---5-----5-5----4---4---4-|
d:--6---------3---3---2----2--2-|
a:-----------4--------3-------3-|
e:------------------------------|
Tap to rate this tab
# A B C D E F G H I J K L M N O P Q R S T U V W X Y Z