Song name
# A B C D E F G H I J K L M N O P Q R S T U V W X Y Z

Warren Barfield - Love Is Not A Fight tab

Note:I am 14-years-old and I learned this by ear, by watching the music video, and with
from my guitar teacher, Peter Banfield.  Just keep that in mind while reading these
 So if you spot any mistakes please let me know. And also, rate high!

Standard Tuning: E/A/D/G/B/E

Chords used
___________
  D     A    F#m    E
|-2-| |-0-| |-2-| |-0-|
|-3-| |-2-| |-2-| |-0-|
|-2-| |-2-| |-2-| |-1-|
|-0-| |-2-| |-4-| |-2-|
|-X-| |-0-| |-4-| |-2-|
|-X-| |-X-| |-2-| |-0-|

This is the song in chronological order so you can play along with the track while you
easier.  Here is a breakdown of the whole song: Intro/Verse 1/Chorus/Verse 
3/Chorus/Conclusion

~l||l~INTRO~l||l~

|-------------------------|
|--10----9/---7----5----2-|
|--11----9/---7---------2-|  (Repeat 2x)
|-------------------------|
|--9-----7/---5----7----0-|
|-------------------------|

~l||l~Verse 1~l||l~

|-------------------------|
|--10----9/---7----5----2-|
|--11----9/---7---------2-|  (Repeat 3x)
|-------------------------|
|--9-----7/---5----7----0-|
|-------------------------|

Strum Chords: D/A/E

 D         (A)     E
"Commit to never Leave"

~l||l~Verse 1 (Continued)~l||l~

|-------------------------|
|--10----9/---7----5----2-|
|--11----9/---7---------2-|  (Repeat 3x)
|-------------------------|
|--9-----7/---5----7----0-|
|-------------------------|

Strum Chords: D/A/E

        D        (A)    E
"Let it bring us to our knees"

~l||l~Chorus~l||l~

D         A     F#m           E      D         A          F#m            E
Love is a shelter in a raging storm; Love is a peace in a middle of a war,
    D           A                   F#m           E
and if we try to leave may God send angels to guard the door.
    D             A             F#m             E
No, love is not a fight, but is something worth fighting for.

|-------------------------|
|--10----9/---7----5----2-|
|--11----9/---7---------2-|  (Repeat 2x)
|-------------------------|
|--9-----7/---5----7----0-|
|-------------------------|

~l||l~Verse 2~l||l~

|-------------------------|
|--10----9/---7----5----2-|
|--11----9/---7---------2-|  (Repeat 3x)
|-------------------------|
|--9-----7/---5----7----0-|
|-------------------------|

Strum Chords: D/A/E

               D       (A)     E
"Keeping their word is hard to do"

~l||l~Chorus~l||l~

D         A     F#m           E      D         A          F#m            E
Love is a shelter in a raging storm; Love is a peace in a middle of a war,
    D           A                   F#m           E
and if we try to leave may God send angels to guard the door.
    D             A             F#m             E
No, love is not a fight, but is something worth fighting for.

|-------------------------|
|--10----9/---7----5----2-|
|--11----9/---7---------2-|  (Repeat 2x)
|-------------------------|
|--9-----7/---5----7----0-|
|-------------------------|


~l||l~Verse 3~l||l~

|-------------------------|
|--10----9/---7----5----2-|
|--11----9/---7---------2-|  (Repeat 3x)
|-------------------------|
|--9-----7/---5----7----0-|
|-------------------------|

~l||l~Chorus~l||l~

D         A     F#m           E      D         A          F#m            E
Love is a shelter in a raging storm; Love is a peace in a middle of a war,
    D           A                   F#m           E
and if we try to leave may God send angels to guard the door.
    D             A             F#m             E
No, love is not a fight, but is something worth fighting for.

Conclusion

|-------------------------|
|--10----9/---7----5----2-|
|--11----9/---7---------2-|  (Repeat 4x)
|-------------------------|
|--9-----7/---5----7----0-|
|-------------------------|
Tap to rate this tab
 
# A B C D E F G H I J K L M N O P Q R S T U V W X Y Z