Guitaretab - guitar tabs
Song name
# A B C D E F G H I J K L M N O P Q R S T U V W X Y Z

Warren Barfield - Unleashed tab

-------------------------------------------------------------------------------
			     Unleashed - Warren Barfield
-------------------------------------------------------------------------------
Tabbed by: christianGuitarteen
Email:

Tuning:standard
                   verse
        Bm             C#m               F#m
e|-------2---------------4----------------2-------------------------------------|
B|-------3---------------5----------------2-------------------------------------|
G|-------4---------------6----------------2-------------------------------------|
D|-------4---------------6----------------4-------------------------------------|
A|-------2---------------4----------------4-------------------------------------|
E|-------2---------------4----------------2-------------------------------------|


                       pre-chorus

[ Tab from: http://www.guitaretab.com/w/warren-barfield/170276.html ]
               Bm                       C#m
e|--------------2------------------------4-------------------------------------|
B|--------------3------------------------5-------------------------------------|
G|--------------4------------------------6-------------------------------------|
D|--------------4------------------------6-------------------------------------|
A|--------------2------------------------4-------------------------------------|
E|--------------2------------------------4-------------------------------------|


                          Chorus

             Bm7             C#m7                 F#m
e|------------7---------------9--------------------9-------------------------------|
B|------------7---------------9--------------------10------------------------------|
G|------------7---------------9--------------------11------------------------------|
D|------------7---------------9--------------------11------------------------------|
A|------------9---------------11-------------------9-------------------------------|
E|------------7---------------9--------------------9-------------------------------|

  thats basically it. u just gotta figure out the strum pattern.
Related for Unleashed tab
Unleashed chords by Warren Barfield