Washya - Whale Song tab

-----------------------------------------------------------------------------
                       Whale song - Washya
-----------------------------------------------------------------------------

Intro/verses/main riff (repeat many times throughout entire song.)
e|-------------------------------------------3-------------3---------------|
B|-------------------------------------------3-------------3---------------|
G|-------------3--------------3----4---4---------4---4-------------------3-|
D|---4---4----------4---4------------4---4---------4---4-------4---4-------|
A|-----4---4----------4---4------2---------2---2---------2-------4---4-----|
E|-2---------2----2---------2--------------------------------2---------2---|

e|------------------------------------------5-------------5-----------------|
B|------------------------------------------5-------------5-----------------|
G|-------------3--------------5---6---6---------6---6-------------------5---|
D|---4---4----------6---6-----------6---6---------6---6-------6---6---------|
A|-----4---4----------6---6-----4---------4---4---------4-------6---6-------|
E|-2---------2---4----------4-------------------------------4---------4-----|

e|--------------------------------------------------------------------------|
B|--------------------------------------------------------------------------|
G|-------------5-----------------9-----------------9-------------------11---|
D|---6---6---------10----10----------10----10-----------12----12------------|
A|-----6---6----------10----10----------10----10-----------12----12---------|
E|-4---------4---8-------------8---8-------------8---10-------------10------|

e|----------------------------------------11---------------------------8----|
B|----------------------------------------11---------------------------8----|
G|-------------------11----12----12----------------------8---9---9----------|
D|----12----12----------------12----12---------9---9-----------9---9--------|
A|-------12----12-------10-------------10--------9---9-----7---------7------|
E|-10-------------10-------------------------7---------7--------------------|

e|-------------------------------|
B|-------------------------------|
G|-------------------------------|
D|-------------------------------|
A|-----6-5-----4-3-----1-0-------|
E|-3-5-----1-3-----1-3-----3-1-3-|
pm . .     . .     . .     . . .  

Tap to rate this tab
 
# A B C D E F G H I J K L M N O P Q R S T U V W X Y Z