Washya - Neon Lights tab

-------------------------------------------------------------------------------
			     Neon Lights - Washya
-------------------------------------------------------------------------------
Tabbed by:
Email:

Tuning: Drop D
Intro (Slow Intro)
e|--------------------------------------------------------|
B|---3-5-3---3-----3-5-3--------3-5-3---3-5-5-5-5-5-3-3---|
G|-4-------4-----4-------4-3--4-------4-----------------4-|
D|--------------------------------------------------------|
A|--------------------------------------------------------|
D|--------------------------------------------------------|


Verses
e|-----------5----------------------5---------------|
B|-------------5-3--------------------5-3-----------|
G|-----------------3-2--------------------3-2-------|
D|---------2----------------------2-----------4-3-5-|
A|---0-2-3-------------2----0-2-3---------------3-5-|
D|-0----------------------0---------------------3-5-|


Chorus
e|------------------------------5---8-7---9~-|
B|--------------------------------5-----7----|
G|-------------------------------------------|
D|-5-5-3~--5-5-7~---------3-1-1--------------|
A|-3-3-1~--3-3-5~---0-3-2-3-1-1--------------|
D|----------------0-------3-1-1--------------|

Tap to rate this tab
 
# A B C D E F G H I J K L M N O P Q R S T U V W X Y Z