Song name
# A B C D E F G H I J K L M N O P Q R S T U V W X Y Z

Washya - Insanity tab

-----------------------------------------------------------------------------
                             Insanity - Washya
-----------------------------------------------------------------------------

Tuning: Drop C (DAFCGC) 
Intro
D|--------------------------------------|
A|---------------------------<5>--------|
F|-----------------------<5>------------|
C|-5-55-45-55-4-5-55-<5>---------44-4-5-|
G|-5-55-45-55-4-5-55-------------44-4-5-|
C|-5-55-45-55-4-5-55-------------44-4-5-|

Verses
D|----------------------------------------------------|
A|----------------------------------------------------|
F|----------------------------------------------------|
C|-2-222-2-222-2-2-222-2-2-222-3-2-222-2-222-2-222-23-|
G|-2-222-2-222-2-2-222-2-2-222-3-2-222-2-222-2-222-23-|
C|-2-222-2-222-2-2-222-2-2-222-3-2-222-2-222-2-222-23-|
pm . ... . ... . . ... . . ... . . ... . ... . ... ..

Chorus
D|----------------------------------------------------|
A|-------------------------------<5>------------------|
F|--------7~-------------<5>--------------------------|
C|-000-45----000-323-000-----<5>-----000---2-3-000-00-|
G|-000-45----000-323-000-------------000-1-----000-00-|
C|-000-45----000-323-000-------------000-------000-00-|
pm ...       ...     ...             ...       ... .. 
Tap to rate this tab
 
# A B C D E F G H I J K L M N O P Q R S T U V W X Y Z