Song name
# A B C D E F G H I J K L M N O P Q R S T U V W X Y Z

Washya - Shut-down tab

-----------------------------------------------------------------------------
       Shut-down - Washya                    
-----------------------------------------------------------------------------

Tuning: Standard (EBGDAE)
intro
e|----------------0-----------------------|
b|----------------3-----------------------|
g|----------------2-----------------------|
D|-3-3-2---3-3-2--0--3-3-2----------------|
A|-3-3-2---3-3-2--0--3-3-0----------------|
E|-1-1-0---1-1-0--0--1-1-0--xx//pickslide-|

Intro 2
e|----------------------------------------------------------------|
b|----------------------------------------------------------------|
g|------------------------------9b--------------------------------|
D|----7-5---5-9-5-7---7-5---5-9-------7-5---5-9-5-7---7-5---------|
A|--------7---------------7---------------7---------------7-7-6-5-|
E|-0----------------0---------------0---------------0-------5-4-3-|
pm .                .               .               .       . . . 

Verses
e|-----------------------------------------------|
b|-----------------------------------------------|
g|-----------------------------------------------|
D|-----------------------------------------------|
A|-2222-222-22222-222--2-2-2222-222-22-2222-222--|
E|-0000-000-00000-000--0-0-0000-000-00-0000-000--|
pm .... ... ..... ...  . . .... ... .. .... ... 

Chorus
e|-----------------------------------------------------|
b|-----------------------------------------------------|
g|----------4h5p4-7p5p4h5------------------------------|
D|------------------------6~---------------------------|
A|------------------------------------6p3h5-----1---3~-|
E|-0000-0-0------------------0000-0-0-------3-2---2----|
pm .... . .                  .... . .            

Interlude
e|---------------------------------------------------------------|
b|---------------------------------------------------------------|
g|---------------------------------------------------------------|
D|--------------------------12----------------------3-1-------3b-|
A|---11-9-7------9-7-----10-----2-22--3-1---1h3-----------1-3----|
E|-9--------9-11-----7-9--------0-00------3-----1h3-----3--------|
pm                              . .. 
Tap to rate this tab
 
# A B C D E F G H I J K L M N O P Q R S T U V W X Y Z