Song name
# A B C D E F G H I J K L M N O P Q R S T U V W X Y Z

Washya - Headstrong tab

-----------------------------------------------------------------------------
			     Headstrong - Washya
-----------------------------------------------------------------------------
Tabbed by:
Email:

Tuning: Drop C (FADCGC) 
Intro
F|--------------------------------------------------------------|
A|--------------------------------------------------------------|
D|------------------------------------8-7------------10-9-7-----|
C|----------9p7-10p7h9----------9p7-9--------------7--------9-7-|
G|--------------------------------------------------------------|
C|-0000-000------------0000-000-----------0000-000--------------|
pm .... ...            .... ...           .... ... 

Verses
F|-----------------------------------------------------|
A|-----------------------------------------------------|
D|---------------------------11---------------------4~-|
C|---------5h7h8---------7h9------------------2---2----|
G|----------------------------------------2-4---4------|
C|-2222222-------2222222--------222222222--------------|
pm .......       .......        .........

Chorus
F|-----------------------------------------------------------------|
A|-----------------------------------------------------------------|
D|-----------------------------------------------------------------|
C|-------------------777-666-555-----------------------------------|
G|-2222-000-2222-000-555-444-333-1111-00-111-6-5-3333-------0-5-7--|
C|-2222-000-2222-000-------------1111-00-111-6-5-3333-0-3-5--------|
pm                                                    . . . . . . 
Tap to rate this tab
# A B C D E F G H I J K L M N O P Q R S T U V W X Y Z