Song name
# A B C D E F G H I J K L M N O P Q R S T U V W X Y Z

Washya - Disaster tab

-----------------------------------------------------------------------------
                     Disaster - Washya
-----------------------------------------------------------------------------
Tuning: Drop B (BF#BEG#C#)

+ natural harmonic
* Artificial Harmonic
b bend
Intro
B|--------------------------------------------------------------------------|
F#|-------------------------------------------------------------------------|
B|--------------------------------------------------------------------------|
E|--------------------------------------------------------------------------|
G#|-------------------------------------------------------------------------|
C#|-0-0-0-0-0-0-0-0-0-0-0-1-1-1-1-1-1-1-1-1-5-3-3-3-3-3-3-3-3-3-3-3-0-0-0-0-|

Intro 2
B|--------------------------------------------------------------------------|
F#|-------------------------------------------------------------------------|
B|--------------------------------------------------------------------------|
E|--------------------------------------------------------------------------|
G#|-0-0-0-0-0-0-0-0-0-0-0-1-1-1-1-1-1-1-1-1-5-3-3-3-3-3-3-3-3-3-3-3-0-0-0-0-|
C#|-0-0-0-0-0-0-0-0-0-0-0-1-1-1-1-1-1-1-1-1-5-3-3-3-3-3-3-3-3-3-3-3-0-0-0-0-|

Verse 1
B|-------------------------------------------|
F#|------------------------------------------|
B|-------------------------------------------|
E|-------------------------------------------|
G#|-0-00-0--0-0--0-00-0--0-0--0-3-1-0-1-3-1b-|
C#|-0-00-0--0-0--0-00-0--0-0--0-3-1-0-1-3----|
pm  . .. .  . .  . .. .  . .    

Verse 1 cont
B|---------------------------------------------------------|
F#|--------------------------------------------------------|
B|---------------------------------------------------------|
E|---------------------------------------------------------|
G#|-55-4-2-4--22-1-0-1-0-1-3-1b-55-4-2-4-22-1-0-1-0-1-3-1b-|
C#|-55-4-2-4--22-1-0-1-0-1-3----55-4-2-4-22-1-0-1-0-1-3----|

Chorus
B|-------------------------------------------------------------|
F#|------------------------------------------------------------|
B|-------------------------------------------------------------|
E|-------------------------------------------------------------|
G#|-4444444-5-2222222222-2h3-0-0-0-----------55-4-0-1-0-1-0----|
C#|-4444444-5-2222222222-2h3-0-0-0-011113333-55-4-0-1-0-1-0-3b-|
Tap to rate this tab
# A B C D E F G H I J K L M N O P Q R S T U V W X Y Z