Song name
# A B C D E F G H I J K L M N O P Q R S T U V W X Y Z

Washya - Road To Nowhere tab

-------------------------------------------------------------------------------
                      Road To Nowhere - Washya
-------------------------------------------------------------------------------
Tuning: Standard (ebgDAE)
Intro
e|------------------------------------------------------------|
b|------------------------------------------------------------|
g|------------------------------------------------------------|
D|------------------------------------------------------------|
A|------5/4----5/4------7/8----7/8------5/4----5/4----5/4-5-2-|
E|-0-00-3/2-00-3/2-0-00-5/6-00-5/6-0-00-3/2-00-3/2-00-3/2-3-0-|
pm . ..     ..     . ..     ..     . ..     ..     ..  

Verses
e|------------------------------------------------------------|
b|------------------------------------------------------------|
g|------------------------------------------------------------|
D|------------------------------------------------------------|
A|-x-xx-3-2-xx-3-2-x-xx-5/6-xx-5/6-x-xx-3-2-xx-3-2-xx-3-2-3-2-|
E|-x-xx-1-0-xx-1-0-x-xx-3/4-xx-3/4-x-xx-1-0-xx-1-0-xx-1-0-1-0-|

Chorus
e|--------------------------------------------------|
b|--------------------------------------------------|
g|-------------4*-----------------------------------|
D|-------2--------------2---------------2-----------|
A|---2-4---4-2------2-4---4-3-2-----2-4---4-2-444-3-|
E|-0--------------0-------------4-0-----------222-1-|
pm .              .               .             

Guitar Solo
e|-17-17-17-17-17p15----15-15-15-15-15p13----13-13-13-13-13p11----|
b|-------------------17-------------------15-------------------13-|
g|----------------------------------------------------------------|
D|----------------------------------------------------------------|
A|----------------------------------------------------------------|
E|----------------------------------------------------------------|
      
                                (Play 15 times fast) 
e|-----------------------------11----------------11-----------|
b|-11h13p11h13p11h13-13~-11-13----13-11----11-13----13-11-----|
g|--------------------------------------12----------------12--|
D|------------------------------------------------------------|
A|------------------------------------------------------------|
E|------------------------------------------------------------|

e|-------11-13~-11t18p15p11t18p15p11/13t19p15p13t19p15p13/15h17p15h17p15h20-|
b|-11-13--------------------------------------------------------------------|
g|--------------------------------------------------------------------------|
D|--------------------------------------------------------------------------|
A|--------------------------------------------------------------------------|
E|--------------------------------------------------------------------------|
Tap to rate this tab
# A B C D E F G H I J K L M N O P Q R S T U V W X Y Z