Song name
# A B C D E F G H I J K L M N O P Q R S T U V W X Y Z

Washya - Children Of The Revolution tab

-------------------------------------------------------------------------------
               Children Of The Revolution - Washya
-------------------------------------------------------------------------------
Tuning: Standard (ebgDAE)
Intro
e|--------------------------------|
b|--------------------------------|
g|----------4~----------4~--------|
D|-4-4444-2----4-4444-2----8-6-xx-|
A|-2-2222------2-2222------6-4-xx-|
E|-----------------------------xx-|

Main Riff
e|------------------------------------------------------------------------|
b|------------------------------------------------------------------------|
g|------------------------------------------------------------------------|
D|--------------6-3---3---3-----------------------6-3---5-3---6-3---5-3---|
A|------------------6---5---6-5-3---3-5---------------6-----5-----6-----5-|
E|-000000000000-------------------5-----0-0-0-0-0-------------------------|
PM ************                         * * * * * 

Verses
e|--------------------------------------------|
b|--------------------------------------------|
g|--------------------------------------------|
D|--------------------------------------------|
A|-----5----------5----------5------5-77-3-55-|
E|-3-6---3-6--3-6---3-6--3-6---3-6--3-55-1-33-|
PM * * * * *  * * * * *  * * * * * 

Chorus
e|-------------------------------------------------|
b|-------------------------------------------------|
g|-------------------------------------------------|
D|---------5b-5h6p5-3-------------7h8-10p8p7p5-----|
A|-2-----3------------7-5-2-----5--------------7-5-|
E|-0-3-5--------------5-3-0-8-7----------------5-3-|
PM * * *                  * * *              
Tap to rate this tab
# A B C D E F G H I J K L M N O P Q R S T U V W X Y Z