Song name
# A B C D E F G H I J K L M N O P Q R S T U V W X Y Z

Washya - Worlds Apart tab

-----------------------------------------------------------------------------
                 Worlds Apart - Washya
-----------------------------------------------------------------------------
Tuning: Standard (EBGDAE)
Intro
E|-------------------------------------------------|
B|-------------------------------------------------|
G|-------------------------------------------------|
D|-------------------------------------------------|
A|-5p3p0---3p0-5p3p0---3p0-5p3p0---3p0-5p3p0-5-4-3-|
E|-------5-----------5-----------5-----------3-2-1-|
PM *****   *** *****   *** *****   *** ***** 

Verses
E|---------------------------------------------------0-------|
B|-----------------------------------------------------3-----|
G|-------------------------------------------------------0---|
D|-------------------------------------------------2-------2-|
A|-2-222-5\4-5\4-2-222-5\4-5\4-2-222-5\4-5\4-2---2-----------|
E|-0-000-3\2-3\2-0-000-3\2-3\2-0-000-3\2-3\2-0-0-------------|
PM * ***         * ***         * ***         *   

Chorus
E|---------------------------------------------|
B|-----------------------11b-------------------|
G|-------11b-11b-6-------11b/14~---------------|
D|-------11b-11b-6-----------------------------|
A|-2---------------2-------------2-----3/5\3-2-|
E|-0-222-----------0-222---------0-222-1/3\1-0-|
PM   ***             ***           ***
Tap to rate this tab
# A B C D E F G H I J K L M N O P Q R S T U V W X Y Z