Song name
# A B C D E F G H I J K L M N O P Q R S T U V W X Y Z

Washya - Leave Me Be tab

-----------------------------------------------------------------------------
                   Leave Me Be - Washya
-----------------------------------------------------------------------------
Tuning: Standard (EBGDAE)
Intro
E|-------------------------------------------------------------------------|
B|-------------------------------------------------------------------------|
G|-------------------------------------------------------------------------|
D|-------------------------------------------------------------------------|
A|-------------------------3-3-3-3-3-3-3-3-3-3-3-3-------------------------|
E|-1-1-1-1-1-1-1-1-1-1-1-1-------------------------4-4-4-4-4-4-4-4-4-4-4-4-|
PM * * * * * * * * * * * * * * * * * * * * * * * * * * * * * * * * * * * * 

Verses
E|-------------------------------------------------------------------------|
B|-------------------------------------------------------------------------|
G|-------------------------------------------------------------------------|
D|-------------------------5-5-5-5-5-5-5-5-5-5-5-5-------------------------|
A|-3-3-3-3-3-3-3-3-3-3-3-3-3-3-3-3-3-3-3-3-3-3-3-3-6-6-6-6-6-6-6-6-6-6-6-6-|
E|-1-1-1-1-1-1-1-1-1-1-1-1-------------------------4-4-4-4-4-4-4-4-4-4-4-4-|

Chorus
E|--------------------------------------------|
B|--------------------------------------------|
G|--------------------------------------------|
D|-6-6-6-6-----6\5-5-5-5-----------------4-44-|
A|-4-4-4-4-6-6-4\3-3-3-3-5-5-5-5\3-3-3-3-2-22-|
E|---------4-4-----------3-3-3-3\1-1-1-1------|

Solo (play twice)
E|-----------------------------------0-----|
B|---1---4-3-1---1---------------4-3---3---|
G|-4---4-------4---4-3-1-----2-1---------0-|
D|-----------------------3-4---------------|
A|-----------------------------------------|
E|-----------------------------------------|
Tap to rate this tab
 
# A B C D E F G H I J K L M N O P Q R S T U V W X Y Z