Song name
# A B C D E F G H I J K L M N O P Q R S T U V W X Y Z

Washya - Children Of The Night tab

------------------------------------------------------------------------------
                  Children Of The Night - Washya
------------------------------------------------------------------------------
Tuning: Standard (EBGDAE)
Intro
E|------------------------------------------------------------------------|
B|------------------------------------------------------------------------|
G|-------------------------------------------------9-8--------------------|
D|-----7-6-------------------------------------7-6------------------------|
A|-2-4---------------5------5----5----5-5--2-4---------3-5------5------33-|
E|---------2-4--0000-3-0000-3-00-3-00-3-3------------------0000-3-0000-11-|
PM              ****   ****   **   **                      ****   **** 

Verses
E|-----------------------------------------------------------------|
B|-----------------------------------------------------------------|
G|-----------------------------------------------------------------|
D|-6-5-3-------------------------------------5-2---2-2222222222222-|
A|-------5-555555555555-1-3-1---333333333333-----4---0000000000000-|
E|---------333333333333-------3-111111111111-----------------------| 
PM         ************         ************         ************* 

E|------------------------------------------|
B|------------------------------------------|
G|------------------------------------------|
D|-22-4-22-4/6-4-6-4------------------------|
A|-00-2-00-2/4-------6-66666666-xx-7-xx-7/9-|
E|---------------------44444444-xx-5-xx-5/7-|
PM                     ******** 

Chorus
E|--------------------------------------------------|
B|--------------------------------------------------|
G|--------------------------------------------------|
D|-6---------6/7\6--------------5-------------------|
A|-4-6-7-4-5-4/5\4-4-222-3-22-3-3-5-6-5-3-5-555-5/7-|
E|---4-5-2-3-------2-000-1-00-1-----------3-333-3/5-|
PM                   ***   **     * * * *   ***  
Tap to rate this tab
# A B C D E F G H I J K L M N O P Q R S T U V W X Y Z