Song name
# A B C D E F G H I J K L M N O P Q R S T U V W X Y Z

Washya - Disposition tab

-----------------------------------------------------------------------------
                    Disposition - Washya
-----------------------------------------------------------------------------
Tuning: Standard (EBGDAE)
Intro
E|-----------------------|
B|-----------------------|
G|-----------------------|
D|-----5-4---------------|
A|-5-7-3-2-2-----2-------|
E|-3-5-----0-2h3---3p2p0-|
PM           *** * *****   x 3 

Part 2 
E|----------------------------------------------|---------------------|
B|----------------------------------------------|---------------------|
G|----------------------------------------------|---------------------|
D|----------------------------------------------|---------------------|
A|-------------3b~--------------------5b~-------|-3333h5555h6666p5555-|
E|-0h11-1111-1-----0h1h3--0h11-1111-1-----0h3h5-|---------------------|
PM **** **** *     *****  **** **** *     *****  (play x 3) 

Main Riff
E|------------------------------------------------|
B|------------------------------------------------|
G|------------------------------------------------|
D|--------5---7---7/8---10---7---33/5-------------|
A|--------3---5---5/6---8----5---11/3---5/7/8\7\5-|
E|-xx\\-0---0---0-----0----0---0------0-3/5/6\5\3-|
PM      *   *   *     *    *   *      * 
Tap to rate this tab
# A B C D E F G H I J K L M N O P Q R S T U V W X Y Z