Song name
# A B C D E F G H I J K L M N O P Q R S T U V W X Y Z

Washya - Where Do I Belong tab

-----------------------------------------------------------------------------
      Where Do I Belong - Washya
-----------------------------------------------------------------------------
Tuning: Standard (EBGDAE)
Intro/Verses
E|-----------------------------3-------3-------3---------------------------|
B|-------------------------------3-------3-------3-------------------------|
G|-----0-------0-------0-------------------------------5-------5-------5---|
D|---------------------------------------------------5---5---5---5---5---3-|
A|---2---2---2---2---2---2---2-------2-------2-----3-------3-------3-------|
E|-0-------0-------0-------3-------3-------3-------------------------------|

E|--------|
B|--------|
G|--------|
D|-55-555-|
A|-33-333-|
E|--------|

Chorus
E|-------33-33-------------|
B|-------33-33-------------|
G|-------00-00-55-55-77-77-|
D|-22-22-00-00-55-55-77-77-|
A|-22-22-22-22-33-33-55-55-|
E|-00-00-33-33-------------|

Solo
E|------------------------------------------------------10h13p11p10h13p11/|
B|-------------------10h12-----10-10h12-----10-12p10h12-------------------|
G|-9b-9p7---7h9p7----------12b----------12b-------------------------------|
D|--------8-------9b------------------------------------------------------|
A|------------------------------------------------------------------------|
E|------------------------------------------------------------------------|

E|-15p13p12h15p13p12/17p15p14h17p15p14/19p17p16h19b-20~-|
B|------------------------------------------------------|
G|------------------------------------------------------|
D|------------------------------------------------------|
A|------------------------------------------------------|
E|------------------------------------------------------|
Tap to rate this tab
# A B C D E F G H I J K L M N O P Q R S T U V W X Y Z