Song name
# A B C D E F G H I J K L M N O P Q R S T U V W X Y Z

Washya - Down The Line tab

-----------------------------------------------------------------------------
 Down The Line - Washya
-----------------------------------------------------------------------------
Tuning: Drop D (DADGBE)
Intro 
E|-------------------------------------------------------------------|
B|-------------------------------------------------------------------|
G|-------------------------------------------------------------------|
D|-------------------------------------------------------------------|
A|-0-0-0-0-0-0-0-0-0-0-0-0-5-6-3-5-3-1/7-8-5-7-5-3-5-6-3-5-3-1/6-5-3-|
D|-0-0-0-0-0-0-0-0-0-0-0-0-5-6-3-5-3-1/7-8-5-7-5-3-5-6-3-5-3-1/6-5-3-|

Verses (VERY HEAVY PALM MUTE)
E|---------------------------------------------------------------|
B|---------------------------------------------------------------|
G|---------------------------------------------------------------|
D|-------------------------8-7h8p7p5h7p5-------------------------|
A|-0-0-0-0-0-0-0-0-0-0-0-0---------------0-0-0-0-0-0-0-0-0-0-0-0-|
D|-0-0-0-0-0-0-0-0-0-0-0-0---------------0-0-0-0-0-0-0-0-0-0-0-0-|
PM * * * * * * * * * * * *               * * * * * * * * * * * * 

E|-------------------------------------------------------------|
B|-------------------------------------------------------------|
G|-----------------------------------------5-4h5p4p2h4p2h4p2---|
D|-8-7h8p7p5h7p5---------------------------------------------4-|
A|---------------7-0-0-0-0-0-0-0-0-0-0-0-0---------------------|
D|-----------------0-0-0-0-0-0-0-0-0-0-0-0---------------------|
PM                 * * * * * * * * * * * *

E|-/10p8p7------------------------------------------------------------------|
B|---------10p8p7-10p8p7----------------------------------------------------|
G|-----------------------9p7p6h9p7p6----------------------------------------|
D|-----------------------------------9p7p6h9p7p6---------6p4h7p6p4----------|
A|-----------------------------------------------7p6p4-7-----------5p4p2----|
D|-----------------------------------------------------------------------4~-|

Intro 
E|-------------------------------------------------------------------|
B|-------------------------------------------------------------------|
G|-------------------------------------------------------------------|
D|-------------------------------------------------------------------|
A|-0-0-0-0-0-0-0-0-0-0-0-0-5-6-3-5-3-1/7-8-5-7-5-3-5-6-3-5-3-1/6-5-3-|
D|-0-0-0-0-0-0-0-0-0-0-0-0-5-6-3-5-3-1/7-8-5-7-5-3-5-6-3-5-3-1/6-5-3-|
Tap to rate this tab
 
# A B C D E F G H I J K L M N O P Q R S T U V W X Y Z