Washya - The Enemy tab

-----------------------------------------------------------------------------
			     The Enemy - Washya
-----------------------------------------------------------------------------
Tabbed by:
Email:

Tuning: Drop C (DAFCGC)  
Intro
D|------------------------------------------------|
A|------------------------------------------------|
F|------------------------------------------------|
C|-14-14-14-15-14-17-15-14-14-14-12-12-10-7-7-7-9-|
G|-12-12-12-12-12-12-12-12-12-12-10-10-8--5-5-5-7-|
C|------------------------------------------------|


Verses
D|------------------------------------------------------|
A|------------------------------------------------------|
F|---------5h6p5~---------7h8p7~---------5h6h8p6p5h6p5~-|
C|-3-3-3-3--------5-5-5-5--------3-3-3-3----------------|
G|-3-3-3-3--------5-5-5-5--------3-3-3-3----------------|
C|-3-3-3-3--------5-5-5-5--------3-3-3-3----------------|


Chorus
D|----------------------------------------------------------|
A|----------------------------------------------------------|
F|-4-4/6-6-6-6---------7-9-10-9-7-----------10-10-----------|
C|-2-2/4-4-4-4-3-3-3-3-5-5-5--5-5-2-2-2-4-4-8--8--6-5-3-2-1-|
G|-2-2/4-4-4-4-3-3-3-3-5-5-5--5-5-2-2-2-4-4-8--8--6-5-3-2-1-|
C|-2-2/4-4-4-4-3-3-3-3-5-5-5--5-5-2-2-2-4-4-8--8--6-5-3-2-1-|


Tap to rate this tab
 
# A B C D E F G H I J K L M N O P Q R S T U V W X Y Z