Song name
# A B C D E F G H I J K L M N O P Q R S T U V W X Y Z

Washya - Your Love tab

-------------------------------------------------------------------------------
          Your Love - Washya
-------------------------------------------------------------------------------
Tuning: Standard (EBGDAE)
Intro
E|---------------------------------------------------------------------|
B|------------------------------------------------------------222-22-2-|
G|-111-111-111-111-1111----------------------111-111-111-1111-222-22-2-|
D|-222-222-222-222-2222----------------------000-000-000-0000-222-22-2-|
A|-222-222-222-222-2222-222-222-222-222-2222-222-222-222-2222----------|
E|----------------------000-000-000-000-0000-333-333-333-3333----------|

Verses E x13, Em x 13 C x 13 A x 6
E|----------------------------------------------------|
B|-------------------------------------------222-22-2-|
G|-1111111111111---------------1111111111111-222-22-2-|
D|-2222222222222---------------0000000000000-222-22-2-|
A|-2222222222222-2222222222222-2222222222222----------|
E|---------------0000000000000-3333333333333----------|

Chorus
E|-------------------------------------------------------|
B|---------------------------------0h1-----2-----------2-|
G|-----1p0-----------------------------0-----2-------2---|
D|---2-----2---------------------2-------2-----0h2-2-----|
A|-2-----------2---2---2-----2-3-------------------------|
E|-----------0---2---0---2h3-----------------------------|

lead
E|-------------------------------------------------------------------------|
B|-------------------------------------------------------------------------|
G|-----------1p0--------------------6h7h9--9p7------7---7~-7b-7-5----------|
D|-----3p2-------5-3----/6h7p6~-6-7------------5~-5---5-----------8-7-5----|
A|-3h5-----3---------2~-------------------------------------------------7~-|
E|-------------------------------------------------------------------------|
Tap to rate this tab
# A B C D E F G H I J K L M N O P Q R S T U V W X Y Z