Song name
# A B C D E F G H I J K L M N O P Q R S T U V W X Y Z

Washya - Lay Me Down tab

-------------------------------------------------------------------------------
                   Lay Me Down - Washya
-------------------------------------------------------------------------------
Tuning: Standard (EBGDAE)
Intro/Chorus
E|---------------------------------------------------|
B|---------------------------------------------------|
G|---------------------------------------------------|
D|---------5/7-----------------------8\7-------------|
A|---5/7---3/5-7/8-5\3---5/7---5/7---6\5---5/7---3/5-|
E|-0-3/5-0-----5/6-3\1-0-3/5-0-3/5-0-----0-3/5-0-1/3-|

Verses
E|---------------------------------------------------------------|
B|---------------------------------------------------------------|
G|---------------------------------------------------------------|
D|---------------------------------------------------------------|
A|-3333-2-2-2--7777-8-8-8--3333-2-2-2--7777-8-8-8--7-8-7-5-8-7-5-|
E|-1111-0-0-0--5555-6-6-6--1111-0-0-0--5555-6-6-6--5-6-5-3-6-5-3-|

Interlude (repeat till ending)
E|----------------------------------------------|
B|----------------------------------------------|
G|----------------------------------------------|
D|-------------------8\7------------------------|
A|-44444444--5\4-2-4-6\5-22222222--77-8-7-5-4-3-|
E|-22222222--3\2-0-2-----00000000--55-6-5-3-2-1-|
PM ********              ******** 
Tap to rate this tab
# A B C D E F G H I J K L M N O P Q R S T U V W X Y Z