Song name
# A B C D E F G H I J K L M N O P Q R S T U V W X Y Z

Washya - Shocker tab

-----------------------------------------------------------------------------
                        Shocker - Washya
-----------------------------------------------------------------------------
Tuning: Standard (EBGDAE)
Intro
E|---------------|   |----------------------------|
B|---------------|   |----------------------------|
G|---------------|   |----------------------------|
D|-4/7\4/9-8-7-4-|   |----------------------------|
A|---------------|   |-5-4-3--9-8-7--5-4-3--9-8-7-|
E|-2/5\2/7-6-5-2-|x3 |-3-2-1--7-6-5--3-2-1--7-6-5-|x3
                    PM * * *  * * *  * * *  * * * 

Part 2/Verses
E|-------------------------------------------------------------------------|
B|-------------------------------------------------------------------------|
G|-------------------------------------------------------------------------|
D|-3-----------------------------------------------------------------------|
A|-1-2--------222-2-22-222-2-5b-222-2-22-222-2-8b-222-2-22-222-2-7\6\5\4-2-|
E|---0-//xx\\-000-0-00-000-0-3b-000-0-00-000-0-6b-000-0-00-000-0-5\4\3\2-0-|
PM            *** * ** *** *    *** * ** *** *    *** * ** *** * * * * *

Chorus
E|-----------------------------------------------|
B|-----------------------------------------------|
G|--------5b--------7b--------9b-----------------|
D|-----------------------------------------------|
A|-22-2-2-3b-22-2-2-5b-22-2-2-7b-10-10-9-7-9-7-5-|
E|-00-0-0----00-0-0----00-0-0----8--8--7-5-7-5-3-|
PM ** * *    ** * *    ** * *    ** ** * * * *  
Tap to rate this tab
# A B C D E F G H I J K L M N O P Q R S T U V W X Y Z