Song name
# A B C D E F G H I J K L M N O P Q R S T U V W X Y Z

Washya - Undercover tab

-----------------------------------------------------------------------------
            Undercover - Washya
-----------------------------------------------------------------------------
Tuning: Standard (EBGDAE)
intro
E|-----------------------|
B|-9~--------------------|
G|----11h13~----9~-------|
D|-----------11----9h11~-|
A|-----------------------|
E|-----------------------|x2

Verses Part 1
E|-------|
B|-------|
G|-------|
D|-7-6-4-|
A|-7-6-4-|
E|-5-4-2-|

Verses Part 2
E|-------| |----------------------|
B|-------| |----14-14-15p14p12~~~-|
G|-------| |-12-------------------|
D|-7-6-2-| |----------------------|
A|-7-6-2-| |----------------------|
E|-5-4-0-| |----------------------|

Chorus (Very Heavy Palm mute)
E|--------------------------------------|
B|--------------------------------------|
G|-5555-7777--5555-777--5555-777--------|
D|-5555-7777--5555-777--5555-777-777777-|
A|-3333-5555--3333-555--3333-555-777777-|
E|-------------------------------555555-|
PM                               ****** 

Ending
E|------------------------------------------------|
B|------------------------------------------------|
G|-555-----555-----555-----777-----777-----777-5~-|
D|-555-777-555-777-555-555-777-555-777-555-777-5~-|
A|-333-777-333-777-333-555-555-555-555-555-555-3~-|
E|-----555-----555-----333-----333-----333--------|
Tap to rate this tab
 
# A B C D E F G H I J K L M N O P Q R S T U V W X Y Z