Song name
# A B C D E F G H I J K L M N O P Q R S T U V W X Y Z

Washya - Descent tab

-----------------------------------------------------------------------------
              Descent - Washya
-----------------------------------------------------------------------------
TUNING: Drop D (DADGBE)
Intro
E|----------------------------------------------------|
B|----------------------------------------------------|
G|------7------6------4------10/11--------------------|
D|----------------------------------------------------|
A|------5------4------2------8/-9-------3------1------|
D|-0000---0000---0000---0000-------0000-3-3333-1-1111-|
PM ****   ****   ****   ****       ****   ****   **** 

Part 2
E|-------------------------------------------------|
B|-------------------------------------------------|
G|------7------7\6------6/9--------5-5\4-4/7-------|
D|------7------7\6------6/9--------5-5\4-4/7-------|
A|-0000-5-0000-5\4-0000-4/7-000000-3-3\2-2/5-5h7-3-|
D|-0000---0000-----0000-----000000-----------5h7-3-|
PM ****   ****     ****     ******           *** 

Verses
E|-------------------------------------------------------------------------|
B|-------------------------------------------------------------------------|
G|-------------------------------------------------------------------------|
D|----------------------------------------------------77-33----33-77-33----|
A|----99-77-99----99-77-99----99-77-99-11-99-77-99----------55----------55-|
D|-00----------00----------00----------------------00----------------------|
PM **          **          **                      **              

E|-------------------------------------------------------------------------|
B|-------------------------------------------------------------------------|
G|-------------------------------------------------55-11-33----------------|
D|-77-33-55----77-33-55----77-33-55-77-55-33-55-------------11-------------|
A|----------33----------55----------------------33-------------5-1-3-5-3-1-|
D|-----------------------------------------------------------------------1-|


Just before Lead
E|----------------------------------------------------------------|
B|----------------------------------------------------------------|
G|-------7---3---5-------9---5---7-------11--7---9\\--------------|
D|-------7---3---5-------9---5---7-------11--7---9\\--------------|
A|-0-0-0-5---1---3-0-0-0-7---3---5-0-0-0-9---5---7\\-5h777777-7\\-|
D|-0-0-0---0---0---0-0-0---0---0---0-0-0---0---0-----5h777777-7\\-|
PM * * *   *   *   * * *   *   *   * * *   *   *       ******
Tap to rate this tab
# A B C D E F G H I J K L M N O P Q R S T U V W X Y Z