Song name
# A B C D E F G H I J K L M N O P Q R S T U V W X Y Z

Washya - Kashmir tab

-----------------------------------------------------------------------------
                         Kashmir - Washya
-----------------------------------------------------------------------------
Tuning: Standard (EBGDAE)
Intro
E|----------------------------------------|
B|----------------------------------------|
G|----------------------------------------|
D|-------------5------------3-------------|
A|--555-33-5-x-3-888-55-7-x-1-3h5p3-------|
E|--333-11-3-x---666-33-5-x---------6p5p3-|x3
PM                            ***** ***** 

Part 2
E|-----------------------|
B|-----------------------|
G|-----------------------|
D|------10\9-10\9-10\9-7-|
A|-2-33-8-\7-8-\7-8-\7-5-|
E|-0-11------------------|

Main Riff/Verses
E|---------------------------------------------------|
B|---------------------------------------------------|
G|---------------------------------------------------|
D|----3p2p0---2p0---5555-333/8\\-------6-6\5---6\5---|
A|----------3-----2-3333-111/6\\-----5---4\3-3-4\3-2-|
E|-00-------------0--------------3h5---------1-----0-|
PM **                            *** *  

Chorus
E|----------------------------------------------------------------|
B|----------------------------------------------------------------|
G|------------------3----5----5/6-----------2-3---9\8-------------|
D|-----------5-4----3----5----5/6-----------2-3-6-9\8-------6-4-2-|
A|-------2---5-4----1----3----3/4-----2-----0-1-6-7\6-4h6p4-6-4-2-|
E|-0h2h3---3-3-2-00---00---00-----1-4---4-1-----4-----------4-2-0-|
PM *****   *     **   **   **     * * * * *           ***** 
Tap to rate this tab
# A B C D E F G H I J K L M N O P Q R S T U V W X Y Z