Song name
# A B C D E F G H I J K L M N O P Q R S T U V W X Y Z

Washya - Catastrophe tab

-----------------------------------------------------------------------------
                                    Catastrophe - Washya
-----------------------------------------------------------------------------
Tuning: Drop B (BF#BEG#C)
Intro
B|----------------------------------------------------------|
F#|---------------------------------------------------------|
B|---------8---------8---------10---------10----------------|
E|-----5---------5---------7----------7---------------------|
G#|--5---5-----5---5-----7---7------7---7-----222222/555555-|
C|-5---------5---------7----------7----------/222222/555555-|x3
PM * * * *   * * * *   * * * *    * * * *  

Verses
B|-----------------------------------------|
F#|----------------------------------------|
B|-----------------------------------------|
E|-----------------------------------------|
G#|-000-000-000--01-01--000-000-000--01-01-|
C|--000-000-000--01-01--000-000-000--01-01-|
PM  *** *** ***         *** *** ***  

Chorus
B|--------------------------------------------------------------------|
F#|-------------------------------------------------------------------|
B|--------------------------------------------------------------------|
E|-------------------5555555-3333333----------------555555-777777-8\\-|
G#|-22222222/5555555-3333333-1111111-3333333-111111-333333-555555-6\\-|
C|--22222222/5555555-----------------3333333-111111-------------------|


Tap to rate this tab
# A B C D E F G H I J K L M N O P Q R S T U V W X Y Z