Song name
# A B C D E F G H I J K L M N O P Q R S T U V W X Y Z

Washya - Going Down tab

-----------------------------------------------------------------------------
                           Going Down - Washya
-----------------------------------------------------------------------------
Tuning: Drop C (DAFCGC) 
Intro
D|----------------------------------------------------------------------|
A|----------------------------------------------------------------------|
F|----------------------------------------------------------------------|
C|-555555555555---------------------------333333333333--------------532-|
G|--------------777777777777-555555555555--------------666666666666-532-|
C|------------------------------------------------------------------532-|x3
PM ************ ************ ************ ************ ************ 

Main Riff
D|-------------------------------------------------------------------------|
A|-------------------------------------------------------------------------|
F|-------------------------------------------------------------------------|
C|-0-1-3-1-0--00--0-1-4-3-1-0--00-1-3-1-0-3-1-0--00-00---------5b-5b-5b-5b-|
G|-0-1-3-1-0--00--0-1-4-3-1-0--00-1-3-1-0-3-1-0--00-00---------5b-5b-5b-5b-|
C|-0-1-3-1-0--00--0-1-4-3-1-0--00-1-3-1-0-3-1-0--00-00-111-111-------------|
PM                                                     *** *** 

Verses
D|-------------------------------------------------------------|
A|-------------------------------------------------------------|
F|-------------------------------------------------------------|
C|-00-0-3-00-------------00-0-3-00-3h4-3-0-------------------0-|
G|-00-0-3-00-------------00-0-3-00-3h4-3-0-------------------0-|
C|-00-0-3-00-0-3-6-5-3-1-00-0-3-00-3h4-3-0-0-3-4-6-4-3-4-3-1-0-|
PM           * * * * * *                   * * * * * * * * * 
Tap to rate this tab
# A B C D E F G H I J K L M N O P Q R S T U V W X Y Z