Song name
# A B C D E F G H I J K L M N O P Q R S T U V W X Y Z

Washya - Joyride tab

-----------------------------------------------------------------------------
            Joyride (Roxette) - Washya
-----------------------------------------------------------------------------
Tuning: Standard (EBGDAE)
Intro
E|-------------|
B|-6b-6b-4\2-2-|
G|-----------0-|
D|-------------|
A|-------------|
E|-------------|

Verses
E|-------------------------------------------|
B|-2-3-2-------------2-3-2-------------2-3-2-|
G|-2-2-2-------------2-2-2-------------2-2-2-|
D|-2-2-2-------------2-2-2-------------2-2-2-|
A|-------------------------------------------|
E|-------0-3-5-0-3-5-------0-3-5-0-3-5-------|
PM       * * * * * *       * * * * * * 

pre chorus
E|----------3-----3-----3----3-|
B|-3--------2-----2-----2----2-|
G|-2-4------0-----0-----0----0-|
D|-0-4-0000---000---000---00---|
A|---2-------------------------|
E|-----------------------------|
PM     ****   ***   ***   ** 

Chorus
E|----------------------|
B|---------/6b-6bp4p2-2-|
G|--------------------0-|
D|-7-5-2----------------|
A|-7-5-0-2--------------|
E|-5-3---0--------------|

Solo
E|---10-9------------10-9---------------|
B|--------10--------------10------------|
G|-----------11-12\\---------11h12/14\\-|
D|--------------------------------------|
A|--------------------------------------|
E|--------------------------------------|
Tap to rate this tab
# A B C D E F G H I J K L M N O P Q R S T U V W X Y Z