Song name
# A B C D E F G H I J K L M N O P Q R S T U V W X Y Z

Washya - Are You Ready tab

-----------------------------------------------------------------------------
                             Are You Ready ? - Washya
-----------------------------------------------------------------------------
Tuning: Drop D (EBGDAD)
Intro/Chorus
E|---------------------------------------------------|
B|---------------------------------------------------|
G|---------------------------------------------------|
D|---------5p4-------------5p4-----5p4-----5p4-----3-|
A|-5h7-7-7-----7p5-5h7-7-7-----7p5-----7p5-----7p5p3-|
D|-------------------------------------------------3-|x3


Verses
E|----------------------------------------------------|
B|----------------------------------------------------|
G|--------------5-5--------------3-3------------------|
D|--------------5-5--------------3-3--------------3-3-|
A|--------------3-3--------------1-1--------------3-3-|
D|-000000000000-----555555555555-----333333333333-3-3-|
PM ************     ************     ************ 

Tap to rate this tab
# A B C D E F G H I J K L M N O P Q R S T U V W X Y Z